  0
SECTION
  2
HEADER
  9
$ACADVER
  1
AC1015
  9
$ACADMAINTVER
 70
     6
  9
$DWGCODEPAGE
  3
ANSI_1252
  9
$INSBASE
 10
0.0
 20
0.0
 30
0.0
  9
$EXTMIN
 10
-30.0
 20
-24.0
 30
0.0
  9
$EXTMAX
 10
30.0
 20
24.0
 30
0.0
  9
$LIMMIN
 10
0.0
 20
0.0
  9
$LIMMAX
 10
12.0
 20
9.0
  9
$ORTHOMODE
 70
     0
  9
$REGENMODE
 70
     1
  9
$FILLMODE
 70
     1
  9
$QTEXTMODE
 70
     0
  9
$MIRRTEXT
 70
     1
  9
$LTSCALE
 40
1.0
  9
$ATTMODE
 70
     1
  9
$TEXTSIZE
 40
0.1377952756
  9
$TRACEWID
 40
0.05
  9
$TEXTSTYLE
  7
Standard
  9
$CLAYER
  8
0
  9
$CELTYPE
  6
ByLayer
  9
$CECOLOR
 62
   256
  9
$CELTSCALE
 40
1.0
  9
$DISPSILH
 70
     0
  9
$DIMSCALE
 40
1.0
  9
$DIMASZ
 40
0.13
  9
$DIMEXO
 40
0.0393700787
  9
$DIMDLI
 40
0.38
  9
$DIMRND
 40
0.0
  9
$DIMDLE
 40
0.0
  9
$DIMEXE
 40
0.0393700787
  9
$DIMTP
 40
0.0
  9
$DIMTM
 40
0.0
  9
$DIMTXT
 40
0.1377952756
  9
$DIMCEN
 40
0.09
  9
$DIMTSZ
 40
0.0
  9
$DIMTOL
 70
     0
  9
$DIMLIM
 70
     0
  9
$DIMTIH
 70
     1
  9
$DIMTOH
 70
     1
  9
$DIMSE1
 70
     0
  9
$DIMSE2
 70
     0
  9
$DIMTAD
 70
     1
  9
$DIMZIN
 70
     0
  9
$DIMBLK
  1

  9
$DIMASO
 70
     1
  9
$DIMSHO
 70
     1
  9
$DIMPOST
  1

  9
$DIMAPOST
  1

  9
$DIMALT
 70
     0
  9
$DIMALTD
 70
     2
  9
$DIMALTF
 40
25.4
  9
$DIMLFAC
 40
1.0
  9
$DIMTOFL
 70
     0
  9
$DIMTVP
 40
0.0
  9
$DIMTIX
 70
     0
  9
$DIMSOXD
 70
     0
  9
$DIMSAH
 70
     0
  9
$DIMBLK1
  1

  9
$DIMBLK2
  1

  9
$DIMSTYLE
  2
Standard
  9
$DIMCLRD
 70
     0
  9
$DIMCLRE
 70
     0
  9
$DIMCLRT
 70
     0
  9
$DIMTFAC
 40
1.0
  9
$DIMGAP
 40
0.06
  9
$DIMJUST
 70
     0
  9
$DIMSD1
 70
     0
  9
$DIMSD2
 70
     0
  9
$DIMTOLJ
 70
     1
  9
$DIMTZIN
 70
     0
  9
$DIMALTZ
 70
     0
  9
$DIMALTTZ
 70
     0
  9
$DIMUPT
 70
     0
  9
$DIMDEC
 70
     2
  9
$DIMTDEC
 70
     2
  9
$DIMALTU
 70
     2
  9
$DIMALTTD
 70
     2
  9
$DIMTXSTY
  7
Standard
  9
$DIMAUNIT
 70
     0
  9
$DIMADEC
 70
     2
  9
$DIMALTRND
 40
0.0
  9
$DIMAZIN
 70
     0
  9
$DIMDSEP
 70
    46
  9
$DIMATFIT
 70
     3
  9
$DIMFRAC
 70
     0
  9
$DIMLDRBLK
  1

  9
$DIMLUNIT
 70
     2
  9
$DIMLWD
 70
    -2
  9
$DIMLWE
 70
    -2
  9
$DIMTMOVE
 70
     0
  9
$LUNITS
 70
     2
  9
$LUPREC
 70
     4
  9
$SKETCHINC
 40
0.1
  9
$FILLETRAD
 40
0.5
  9
$AUNITS
 70
     0
  9
$AUPREC
 70
     2
  9
$MENU
  1
.
  9
$ELEVATION
 40
0.0
  9
$PELEVATION
 40
0.0
  9
$THICKNESS
 40
0.0
  9
$LIMCHECK
 70
     0
  9
$CHAMFERA
 40
0.0
  9
$CHAMFERB
 40
0.0
  9
$CHAMFERC
 40
0.0
  9
$CHAMFERD
 40
0.0
  9
$SKPOLY
 70
     0
  9
$TDCREATE
 40
2457520.625067442
  9
$TDUCREATE
 40
2457520.916734109
  9
$TDUPDATE
 40
2457520.625117998
  9
$TDUUPDATE
 40
2457520.916784664
  9
$TDINDWG
 40
0.0000000116
  9
$TDUSRTIMER
 40
0.0000000116
  9
$USRTIMER
 70
     1
  9
$ANGBASE
 50
0.0
  9
$ANGDIR
 70
     0
  9
$PDMODE
 70
     0
  9
$PDSIZE
 40
-1.0
  9
$PLINEWID
 40
0.0
  9
$SPLFRAME
 70
     0
  9
$SPLINETYPE
 70
     6
  9
$SPLINESEGS
 70
     8
  9
$HANDSEED
  5
257
  9
$SURFTAB1
 70
     6
  9
$SURFTAB2
 70
     6
  9
$SURFTYPE
 70
     6
  9
$SURFU
 70
     6
  9
$SURFV
 70
     6
  9
$UCSBASE
  2

  9
$UCSNAME
  2

  9
$UCSORG
 10
0.0
 20
0.0
 30
0.0
  9
$UCSXDIR
 10
1.0
 20
0.0
 30
0.0
  9
$UCSYDIR
 10
0.0
 20
1.0
 30
0.0
  9
$UCSORTHOREF
  2

  9
$UCSORTHOVIEW
 70
     0
  9
$UCSORGTOP
 10
0.0
 20
0.0
 30
0.0
  9
$UCSORGBOTTOM
 10
0.0
 20
0.0
 30
0.0
  9
$UCSORGLEFT
 10
0.0
 20
0.0
 30
0.0
  9
$UCSORGRIGHT
 10
0.0
 20
0.0
 30
0.0
  9
$UCSORGFRONT
 10
0.0
 20
0.0
 30
0.0
  9
$UCSORGBACK
 10
0.0
 20
0.0
 30
0.0
  9
$PUCSBASE
  2

  9
$PUCSNAME
  2

  9
$PUCSORG
 10
0.0
 20
0.0
 30
0.0
  9
$PUCSXDIR
 10
1.0
 20
0.0
 30
0.0
  9
$PUCSYDIR
 10
0.0
 20
1.0
 30
0.0
  9
$PUCSORTHOREF
  2

  9
$PUCSORTHOVIEW
 70
     0
  9
$PUCSORGTOP
 10
0.0
 20
0.0
 30
0.0
  9
$PUCSORGBOTTOM
 10
0.0
 20
0.0
 30
0.0
  9
$PUCSORGLEFT
 10
0.0
 20
0.0
 30
0.0
  9
$PUCSORGRIGHT
 10
0.0
 20
0.0
 30
0.0
  9
$PUCSORGFRONT
 10
0.0
 20
0.0
 30
0.0
  9
$PUCSORGBACK
 10
0.0
 20
0.0
 30
0.0
  9
$USERI1
 70
     0
  9
$USERI2
 70
     0
  9
$USERI3
 70
     0
  9
$USERI4
 70
     0
  9
$USERI5
 70
     0
  9
$USERR1
 40
0.0
  9
$USERR2
 40
0.0
  9
$USERR3
 40
0.0
  9
$USERR4
 40
0.0
  9
$USERR5
 40
0.0
  9
$WORLDVIEW
 70
     1
  9
$SHADEDGE
 70
     3
  9
$SHADEDIF
 70
    70
  9
$TILEMODE
 70
     1
  9
$MAXACTVP
 70
    64
  9
$PINSBASE
 10
0.0
 20
0.0
 30
0.0
  9
$PLIMCHECK
 70
     0
  9
$PEXTMIN
 10
1.0000000000E+20
 20
1.0000000000E+20
 30
1.0000000000E+20
  9
$PEXTMAX
 10
-1.0000000000E+20
 20
-1.0000000000E+20
 30
-1.0000000000E+20
  9
$PLIMMIN
 10
0.0
 20
0.0
  9
$PLIMMAX
 10
12.0
 20
9.0
  9
$UNITMODE
 70
     0
  9
$VISRETAIN
 70
     1
  9
$PLINEGEN
 70
     0
  9
$PSLTSCALE
 70
     1
  9
$TREEDEPTH
 70
  3020
  9
$CMLSTYLE
  2
Standard
  9
$CMLJUST
 70
     0
  9
$CMLSCALE
 40
1.0
  9
$PROXYGRAPHICS
 70
     1
  9
$MEASUREMENT
 70
     0
  9
$CELWEIGHT
370
    -1
  9
$ENDCAPS
280
     0
  9
$JOINSTYLE
280
     0
  9
$LWDISPLAY
290
     1
  9
$INSUNITS
 70
     1
  9
$HYPERLINKBASE
  1

  9
$STYLESHEET
  1

  9
$XEDIT
290
     1
  9
$CEPSNTYPE
380
     0
  9
$PSTYLEMODE
290
     1
  9
$FINGERPRINTGUID
  2
{88EC98C7-1CF4-478F-885C-9F2BFFA5492B}
  9
$VERSIONGUID
  2
{FAEB1C32-E019-11D5-929B-00C0DF256EC4}
  9
$EXTNAMES
290
     1
  9
$PSVPSCALE
 40
0.0
  9
$OLESTARTUP
290
     0
  0
ENDSEC
  0
SECTION
  2
CLASSES
  0
CLASS
  1
ACDBDICTIONARYWDFLT
  2
AcDbDictionaryWithDefault
  3
ObjectDBX Classes
 90
        0
280
     0
281
     0
  0
CLASS
  1
VISUALSTYLE
  2
AcDbVisualStyle
  3
ObjectDBX Classes
 90
     4095
280
     0
281
     0
  0
CLASS
  1
MATERIAL
  2
AcDbMaterial
  3
ObjectDBX Classes
 90
     1153
280
     0
281
     0
  0
CLASS
  1
SCALE
  2
AcDbScale
  3
ObjectDBX Classes
 90
     1153
280
     0
281
     0
  0
CLASS
  1
TABLESTYLE
  2
AcDbTableStyle
  3
ObjectDBX Classes
 90
     4095
280
     0
281
     0
  0
CLASS
  1
MLEADERSTYLE
  2
AcDbMLeaderStyle
  3
ACDB_MLEADERSTYLE_CLASS
 90
     4095
280
     0
281
     0
  0
CLASS
  1
SUN
  2
AcDbSun
  3
SCENEOE
 90
     1153
280
     0
281
     0
  0
CLASS
  1
ACDBPLACEHOLDER
  2
AcDbPlaceHolder
  3
ObjectDBX Classes
 90
        0
280
     0
281
     0
  0
CLASS
  1
LAYOUT
  2
AcDbLayout
  3
ObjectDBX Classes
 90
        0
280
     0
281
     0
  0
ENDSEC
  0
SECTION
  2
TABLES
  0
TABLE
  2
VPORT
  5
8
330
0
100
AcDbSymbolTable
 70
     1
  0
VPORT
  5
29
330
8
100
AcDbSymbolTableRecord
100
AcDbViewportTableRecord
  2
*Active
 70
     0
 10
0.0
 20
0.0
 11
1.0
 21
1.0
 12
0.0
 22
0.0
 13
0.0
 23
0.0
 14
0.5
 24
0.5
 15
0.5
 25
0.5
 16
0.0
 26
0.0
 36
1.0
 17
0.0
 27
0.0
 37
0.0
 40
48.96
 41
1.25
 42
50.0
 43
0.0
 44
0.0
 50
0.0
 51
0.0
 71
     0
 72
   100
 73
     1
 74
     3
 75
     0
 76
     0
 77
     0
 78
     0
281
     0
 65
     1
110
0.0
120
0.0
130
0.0
111
1.0
121
0.0
131
0.0
112
0.0
122
1.0
132
0.0
 79
     0
146
0.0
  0
ENDTAB
  0
TABLE
  2
LTYPE
  5
5
330
0
100
AcDbSymbolTable
 70
     6
  0
LTYPE
  5
14
330
5
100
AcDbSymbolTableRecord
100
AcDbLinetypeTableRecord
  2
ByBlock
 70
     0
  3

 72
    65
 73
     0
 40
0.0
  0
LTYPE
  5
15
330
5
100
AcDbSymbolTableRecord
100
AcDbLinetypeTableRecord
  2
ByLayer
 70
     0
  3

 72
    65
 73
     0
 40
0.0
  0
LTYPE
  5
16
330
5
100
AcDbSymbolTableRecord
100
AcDbLinetypeTableRecord
  2
Continuous
 70
     0
  3
Solid line
 72
    65
 73
     0
 40
0.0
  0
LTYPE
  5
6E
330
5
100
AcDbSymbolTableRecord
100
AcDbLinetypeTableRecord
  2
HIDDEN
 70
     0
  3
Hidden __ __ __ __ __ __ __ __ __ __ __ __ __ __
 72
    65
 73
     2
 40
0.075
 49
0.05
 74
     0
 49
-0.025
 74
     0
  0
LTYPE
  5
6F
330
5
100
AcDbSymbolTableRecord
100
AcDbLinetypeTableRecord
  2
PHANTOM
 70
     0
  3
Phantom ______  __  __  ______  __  __  ______
 72
    65
 73
     6
 40
0.5
 49
0.25
 74
     0
 49
-0.05
 74
     0
 49
0.05
 74
     0
 49
-0.05
 74
     0
 49
0.05
 74
     0
 49
-0.05
 74
     0
  0
LTYPE
  5
70
330
5
100
AcDbSymbolTableRecord
100
AcDbLinetypeTableRecord
  2
CENTER
 70
     0
  3
Center ____ _ ____ _ ____ _ ____ _ ____ _ ____
 72
    65
 73
     4
 40
0.4
 49
0.25
 74
     0
 49
-0.05
 74
     0
 49
0.05
 74
     0
 49
-0.05
 74
     0
  0
LTYPE
  5
71
330
5
100
AcDbSymbolTableRecord
100
AcDbLinetypeTableRecord
  2
CENTERX2
 70
     0
  3
Center (2x) ________  __  ________  __  _____
 72
    65
 73
     4
 40
0.8
 49
0.5
 74
     0
 49
-0.1
 74
     0
 49
0.1
 74
     0
 49
-0.1
 74
     0
  0
LTYPE
  5
72
330
5
100
AcDbSymbolTableRecord
100
AcDbLinetypeTableRecord
  2
DOT2
 70
     0
  3
Dot (.5x) ........................................
 72
    65
 73
     2
 40
0.025
 49
0.0
 74
     0
 49
-0.025
 74
     0
  0
ENDTAB
  0
TABLE
  2
LAYER
  5
2
330
0
100
AcDbSymbolTable
 70
     1
  0
LAYER
  5
10
330
2
100
AcDbSymbolTableRecord
100
AcDbLayerTableRecord
  2
0
 70
     0
 62
     7
  6
Continuous
370
    -3
390
F
  0
ENDTAB
  0
TABLE
  2
STYLE
  5
3
330
0
100
AcDbSymbolTable
 70
     1
  0
STYLE
  5
11
330
3
100
AcDbSymbolTableRecord
100
AcDbTextStyleTableRecord
  2
Standard
 70
     0
 40
0.0
 41
1.0
 50
0.0
 71
     0
 42
0.1377952756
  3
txt
  4

  0
ENDTAB
  0
TABLE
  2
VIEW
  5
6
330
0
100
AcDbSymbolTable
 70
     0
  0
ENDTAB
  0
TABLE
  2
UCS
  5
7
330
0
100
AcDbSymbolTable
 70
     0
  0
ENDTAB
  0
TABLE
  2
APPID
  5
9
330
0
100
AcDbSymbolTable
 70
     1
  0
APPID
  5
12
330
9
100
AcDbSymbolTableRecord
100
AcDbRegAppTableRecord
  2
ACAD
 70
     0
  0
ENDTAB
  0
TABLE
  2
DIMSTYLE
  5
A
330
0
100
AcDbSymbolTable
 70
     1
100
AcDbDimStyleTable
  0
DIMSTYLE
105
27
330
A
100
AcDbSymbolTableRecord
100
AcDbDimStyleTableRecord
  2
Standard
 70
     0
178
     0
340
11
  0
ENDTAB
  0
TABLE
  2
BLOCK_RECORD
  5
1
330
0
100
AcDbSymbolTable
 70
     1
  0
BLOCK_RECORD
  5
1F
330
1
100
AcDbSymbolTableRecord
100
AcDbBlockTableRecord
  2
*Model_Space
340
22
  0
BLOCK_RECORD
  5
1B
330
1
100
AcDbSymbolTableRecord
100
AcDbBlockTableRecord
  2
*Paper_Space
340
1E
  0
BLOCK_RECORD
  5
23
330
1
100
AcDbSymbolTableRecord
100
AcDbBlockTableRecord
  2
*Paper_Space0
340
26
  0
ENDTAB
  0
ENDSEC
  0
SECTION
  2
BLOCKS
  0
BLOCK
  5
20
330
1F
100
AcDbEntity
  8
0
100
AcDbBlockBegin
  2
*Model_Space
 70
     0
 10
0.0
 20
0.0
 30
0.0
  3
*Model_Space
  1

  0
ENDBLK
  5
21
330
1F
100
AcDbEntity
  8
0
100
AcDbBlockEnd
  0
BLOCK
  5
1C
330
1B
100
AcDbEntity
 67
     1
  8
0
100
AcDbBlockBegin
  2
*Paper_Space
 70
     0
 10
0.0
 20
0.0
 30
0.0
  3
*Paper_Space
  1

  0
ENDBLK
  5
1D
330
1B
100
AcDbEntity
 67
     1
  8
0
100
AcDbBlockEnd
  0
BLOCK
  5
24
330
23
100
AcDbEntity
  8
0
100
AcDbBlockBegin
  2
*Paper_Space0
 70
     0
 10
0.0
 20
0.0
 30
0.0
  3
*Paper_Space0
  1

  0
ENDBLK
  5
25
330
23
100
AcDbEntity
  8
0
100
AcDbBlockEnd
  0
ENDSEC
  0
SECTION
  2
ENTITIES
  0
LINE
  5
165
330
1F
100
AcDbEntity
  8
0
  6
Continuous
 62
     7
370
    15
100
AcDbLine
 10
20.2844490908
 20
-15.8018421767
 30
0.0
 11
17.81138967
 21
-15.8018421767
 31
0.0
  0
LINE
  5
166
330
1F
100
AcDbEntity
  8
0
  6
Continuous
 62
     7
370
    15
100
AcDbLine
 10
17.81138967
 20
-15.8018421767
 30
0.0
 11
16.5748599597
 21
-17.9435744602
 31
0.0
  0
LINE
  5
167
330
1F
100
AcDbEntity
  8
0
  6
Continuous
 62
     7
370
    15
100
AcDbLine
 10
16.5748599597
 20
-17.9435744602
 30
0.0
 11
17.81138967
 21
-20.0853067437
 31
0.0
  0
LINE
  5
168
330
1F
100
AcDbEntity
  8
0
  6
Continuous
 62
     7
370
    15
100
AcDbLine
 10
17.81138967
 20
-20.0853067437
 30
0.0
 11
20.2844490908
 21
-20.0853067437
 31
0.0
  0
LINE
  5
169
330
1F
100
AcDbEntity
  8
0
  6
Continuous
 62
     7
370
    15
100
AcDbLine
 10
20.2844490908
 20
-20.0853067437
 30
0.0
 11
21.5209788012
 21
-17.9435744602
 31
0.0
  0
LINE
  5
16A
330
1F
100
AcDbEntity
  8
0
  6
Continuous
 62
     7
370
    15
100
AcDbLine
 10
21.5209788012
 20
-17.9435744602
 30
0.0
 11
20.2844490908
 21
-15.8018421767
 31
0.0
  0
LINE
  5
16B
330
1F
100
AcDbEntity
  8
0
  6
Continuous
 62
     7
370
    15
100
AcDbLine
 10
-16.8560806196
 20
-18.0795744602
 30
0.0
 11
-16.8560806196
 21
-17.8075744602
 31
0.0
  0
LINE
  5
16C
330
1F
100
AcDbEntity
  8
0
  6
Continuous
 62
     7
370
    15
100
AcDbLine
 10
-21.2080806196
 20
-17.8075744602
 30
0.0
 11
-21.2080806196
 21
-18.0795744602
 31
0.0
  0
LINE
  5
16D
330
1F
100
AcDbEntity
  8
0
  6
Continuous
 62
     7
370
    15
100
AcDbLine
 10
-29.4142135624
 20
-14.5753787975
 30
0.0
 11
-20.5753787975
 21
-23.4142135624
 31
0.0
  0
LINE
  5
16E
330
1F
100
AcDbEntity
  8
0
  6
Continuous
 62
     7
370
    15
100
AcDbLine
 10
-30.0
 20
24.0
 30
0.0
 11
-30.0
 21
-13.1611652352
 31
0.0
  0
LINE
  5
16F
330
1F
100
AcDbEntity
  8
0
  6
Continuous
 62
     7
370
    15
100
AcDbLine
 10
30.0
 20
24.0
 30
0.0
 11
-30.0
 21
24.0
 31
0.0
  0
LINE
  5
170
330
1F
100
AcDbEntity
  8
0
  6
Continuous
 62
     7
370
    15
100
AcDbLine
 10
30.0
 20
-21.8050307021
 30
0.0
 11
30.0
 21
24.0
 31
0.0
  0
LINE
  5
171
330
1F
100
AcDbEntity
  8
0
  6
Continuous
 62
     7
370
    15
100
AcDbLine
 10
-19.1611652352
 20
-24.0
 30
0.0
 11
27.9494953931
 21
-24.0
 31
0.0
  0
ARC
  5
172
330
1F
100
AcDbEntity
  8
0
  6
Continuous
 62
     7
370
    15
100
AcDbCircle
 10
-19.0320806196
 20
-18.0795744602
 30
0.0
 40
2.175999999999998
100
AcDbArc
 50
180.0
 51
0.0
  0
ARC
  5
173
330
1F
100
AcDbEntity
  8
0
  6
Continuous
 62
     7
370
    15
100
AcDbCircle
 10
-19.0320806196
 20
-17.8075744602
 30
0.0
 40
2.176000000000002
100
AcDbArc
 50
0.0
 51
180.0
  0
ARC
  5
174
330
1F
100
AcDbEntity
  8
0
  6
Continuous
 62
     7
370
    15
100
AcDbCircle
 10
-24.4488428243
 20
9.9937168784
 30
0.0
 40
0.1599999999999995
100
AcDbArc
 50
177.3027318661
 51
2.6972681339
  0
ARC
  5
175
330
1F
100
AcDbEntity
  8
0
  6
Continuous
 62
     7
370
    15
100
AcDbCircle
 10
-24.4488428243
 20
11.6937168784
 30
0.0
 40
1.7
100
AcDbArc
 50
275.3945362679
 51
84.6054637321
  0
ARC
  5
176
330
1F
100
AcDbEntity
  8
0
  6
Continuous
 62
     7
370
    15
100
AcDbCircle
 10
-24.4488428243
 20
13.3937168784
 30
0.0
 40
0.1599999999999995
100
AcDbArc
 50
357.3027318661
 51
182.6972681339
  0
ARC
  5
177
330
1F
100
AcDbEntity
  8
0
  6
Continuous
 62
     7
370
    15
100
AcDbCircle
 10
-24.4488428243
 20
11.6937168784
 30
0.0
 40
1.699999999999999
100
AcDbArc
 50
95.3945362679
 51
264.6054637321
  0
ARC
  5
178
330
1F
100
AcDbEntity
  8
0
  6
Continuous
 62
     7
370
    15
100
AcDbCircle
 10
-16.2968743204
 20
9.9937168784
 30
0.0
 40
0.1600000000000031
100
AcDbArc
 50
177.3027318661
 51
2.6972681339
  0
ARC
  5
179
330
1F
100
AcDbEntity
  8
0
  6
Continuous
 62
     7
370
    15
100
AcDbCircle
 10
-16.2968743204
 20
11.6937168784
 30
0.0
 40
1.7
100
AcDbArc
 50
275.3945362679
 51
84.6054637321
  0
ARC
  5
17A
330
1F
100
AcDbEntity
  8
0
  6
Continuous
 62
     7
370
    15
100
AcDbCircle
 10
-16.2968743204
 20
13.3937168784
 30
0.0
 40
0.1600000000000031
100
AcDbArc
 50
357.3027318661
 51
182.6972681339
  0
ARC
  5
17B
330
1F
100
AcDbEntity
  8
0
  6
Continuous
 62
     7
370
    15
100
AcDbCircle
 10
-16.2968743204
 20
11.6937168784
 30
0.0
 40
1.7
100
AcDbArc
 50
95.3945362679
 51
264.6054637321
  0
ARC
  5
17C
330
1F
100
AcDbEntity
  8
0
  6
Continuous
 62
     7
370
    15
100
AcDbCircle
 10
-19.5308900684
 20
6.7597011304
 30
0.0
 40
0.1600000000000031
100
AcDbArc
 50
177.3027318661
 51
2.6972681339
  0
ARC
  5
17D
330
1F
100
AcDbEntity
  8
0
  6
Continuous
 62
     7
370
    15
100
AcDbCircle
 10
-19.5308900684
 20
8.4597011304
 30
0.0
 40
1.7
100
AcDbArc
 50
275.3945362679
 51
84.6054637321
  0
ARC
  5
17E
330
1F
100
AcDbEntity
  8
0
  6
Continuous
 62
     7
370
    15
100
AcDbCircle
 10
-19.5308900684
 20
10.1597011304
 30
0.0
 40
0.1600000000000033
100
AcDbArc
 50
357.3027318661
 51
182.6972681339
  0
ARC
  5
17F
330
1F
100
AcDbEntity
  8
0
  6
Continuous
 62
     7
370
    15
100
AcDbCircle
 10
-19.5308900684
 20
8.4597011304
 30
0.0
 40
1.699999999999999
100
AcDbArc
 50
95.3945362679
 51
264.6054637321
  0
ARC
  5
180
330
1F
100
AcDbEntity
  8
0
  6
Continuous
 62
     7
370
    15
100
AcDbCircle
 10
-8.1842066038
 20
8.971039713
 30
0.0
 40
0.1599999999999997
100
AcDbArc
 50
177.3027318661
 51
2.6972681339
  0
ARC
  5
181
330
1F
100
AcDbEntity
  8
0
  6
Continuous
 62
     7
370
    15
100
AcDbCircle
 10
-8.1842066038
 20
10.671039713
 30
0.0
 40
1.700000000000001
100
AcDbArc
 50
275.3945362679
 51
84.6054637321
  0
ARC
  5
182
330
1F
100
AcDbEntity
  8
0
  6
Continuous
 62
     7
370
    15
100
AcDbCircle
 10
-8.1842066038
 20
12.371039713
 30
0.0
 40
0.1599999999999994
100
AcDbArc
 50
357.3027318661
 51
182.6972681339
  0
ARC
  5
183
330
1F
100
AcDbEntity
  8
0
  6
Continuous
 62
     7
370
    15
100
AcDbCircle
 10
-8.1842066038
 20
10.671039713
 30
0.0
 40
1.700000000000001
100
AcDbArc
 50
95.3945362679
 51
264.6054637321
  0
ARC
  5
184
330
1F
100
AcDbEntity
  8
0
  6
Continuous
 62
     7
370
    15
100
AcDbCircle
 10
-13.0628585723
 20
6.7597011304
 30
0.0
 40
0.1600000000000032
100
AcDbArc
 50
177.3027318661
 51
2.6972681339
  0
ARC
  5
185
330
1F
100
AcDbEntity
  8
0
  6
Continuous
 62
     7
370
    15
100
AcDbCircle
 10
-13.0628585723
 20
8.4597011304
 30
0.0
 40
1.7
100
AcDbArc
 50
275.3945362679
 51
84.6054637321
  0
ARC
  5
186
330
1F
100
AcDbEntity
  8
0
  6
Continuous
 62
     7
370
    15
100
AcDbCircle
 10
-13.0628585723
 20
10.1597011304
 30
0.0
 40
0.1600000000000033
100
AcDbArc
 50
357.3027318661
 51
182.6972681339
  0
ARC
  5
187
330
1F
100
AcDbEntity
  8
0
  6
Continuous
 62
     7
370
    15
100
AcDbCircle
 10
-13.0628585723
 20
8.4597011304
 30
0.0
 40
1.699999999999999
100
AcDbArc
 50
95.3945362679
 51
264.6054637321
  0
ARC
  5
188
330
1F
100
AcDbEntity
  8
0
  6
Continuous
 62
     7
370
    15
100
AcDbCircle
 10
-16.2968743204
 20
3.5256853823
 30
0.0
 40
0.1599999999999994
100
AcDbArc
 50
177.3027318661
 51
2.6972681339
  0
ARC
  5
189
330
1F
100
AcDbEntity
  8
0
  6
Continuous
 62
     7
370
    15
100
AcDbCircle
 10
-16.2968743204
 20
5.2256853823
 30
0.0
 40
1.700000000000002
100
AcDbArc
 50
275.3945362679
 51
84.6054637321
  0
ARC
  5
18A
330
1F
100
AcDbEntity
  8
0
  6
Continuous
 62
     7
370
    15
100
AcDbCircle
 10
-16.2968743204
 20
6.9256853823
 30
0.0
 40
0.1600000000000031
100
AcDbArc
 50
357.3027318661
 51
182.6972681339
  0
ARC
  5
18B
330
1F
100
AcDbEntity
  8
0
  6
Continuous
 62
     7
370
    15
100
AcDbCircle
 10
-16.2968743204
 20
5.2256853823
 30
0.0
 40
1.700000000000002
100
AcDbArc
 50
95.3945362679
 51
264.6054637321
  0
ARC
  5
18C
330
1F
100
AcDbEntity
  8
0
  6
Continuous
 62
     7
370
    15
100
AcDbCircle
 10
-24.4488428243
 20
-0.9933697358
 30
0.0
 40
0.1599999999999996
100
AcDbArc
 50
177.3027318661
 51
2.6972681339
  0
ARC
  5
18D
330
1F
100
AcDbEntity
  8
0
  6
Continuous
 62
     7
370
    15
100
AcDbCircle
 10
-24.4488428243
 20
0.7066302642
 30
0.0
 40
1.699999999999998
100
AcDbArc
 50
275.3945362679
 51
84.6054637321
  0
ARC
  5
18E
330
1F
100
AcDbEntity
  8
0
  6
Continuous
 62
     7
370
    15
100
AcDbCircle
 10
-24.4488428243
 20
2.4066302642
 30
0.0
 40
0.1599999999999995
100
AcDbArc
 50
357.3027318661
 51
182.6972681339
  0
ARC
  5
18F
330
1F
100
AcDbEntity
  8
0
  6
Continuous
 62
     7
370
    15
100
AcDbCircle
 10
-24.4488428243
 20
0.7066302642
 30
0.0
 40
1.700000000000001
100
AcDbArc
 50
95.3945362679
 51
264.6054637321
  0
ARC
  5
190
330
1F
100
AcDbEntity
  8
0
  6
Continuous
 62
     7
370
    15
100
AcDbCircle
 10
-19.014197155
 20
-0.9933697358
 30
0.0
 40
0.1599999999999996
100
AcDbArc
 50
177.3027318661
 51
2.6972681339
  0
ARC
  5
191
330
1F
100
AcDbEntity
  8
0
  6
Continuous
 62
     7
370
    15
100
AcDbCircle
 10
-19.014197155
 20
0.7066302642
 30
0.0
 40
1.699999999999999
100
AcDbArc
 50
275.3945362679
 51
84.6054637321
  0
ARC
  5
192
330
1F
100
AcDbEntity
  8
0
  6
Continuous
 62
     7
370
    15
100
AcDbCircle
 10
-19.014197155
 20
2.4066302642
 30
0.0
 40
0.1599999999999997
100
AcDbArc
 50
357.3027318661
 51
182.6972681339
  0
ARC
  5
193
330
1F
100
AcDbEntity
  8
0
  6
Continuous
 62
     7
370
    15
100
AcDbCircle
 10
-19.014197155
 20
0.7066302642
 30
0.0
 40
1.700000000000001
100
AcDbArc
 50
95.3945362679
 51
264.6054637321
  0
ARC
  5
194
330
1F
100
AcDbEntity
  8
0
  6
Continuous
 62
     7
370
    15
100
AcDbCircle
 10
-21.7288428243
 20
-5.437464224
 30
0.0
 40
0.1600000000000031
100
AcDbArc
 50
177.3027318661
 51
2.6972681339
  0
ARC
  5
195
330
1F
100
AcDbEntity
  8
0
  6
Continuous
 62
     7
370
    15
100
AcDbCircle
 10
-21.7288428243
 20
-3.737464224
 30
0.0
 40
1.7
100
AcDbArc
 50
275.3945362679
 51
84.6054637321
  0
ARC
  5
196
330
1F
100
AcDbEntity
  8
0
  6
Continuous
 62
     7
370
    15
100
AcDbCircle
 10
-21.7288428243
 20
-2.037464224
 30
0.0
 40
0.1600000000000031
100
AcDbArc
 50
357.3027318661
 51
182.6972681339
  0
ARC
  5
197
330
1F
100
AcDbEntity
  8
0
  6
Continuous
 62
     7
370
    15
100
AcDbCircle
 10
-21.7288428243
 20
-3.737464224
 30
0.0
 40
1.700000000000001
100
AcDbArc
 50
95.3945362679
 51
264.6054637321
  0
ARC
  5
198
330
1F
100
AcDbEntity
  8
0
  6
Continuous
 62
     7
370
    15
100
AcDbCircle
 10
-24.4488428243
 20
-9.8815587122
 30
0.0
 40
0.1599999999999993
100
AcDbArc
 50
177.3027318661
 51
2.6972681339
  0
ARC
  5
199
330
1F
100
AcDbEntity
  8
0
  6
Continuous
 62
     7
370
    15
100
AcDbCircle
 10
-24.4488428243
 20
-8.1815587122
 30
0.0
 40
1.700000000000004
100
AcDbArc
 50
275.3945362679
 51
84.6054637321
  0
ARC
  5
19A
330
1F
100
AcDbEntity
  8
0
  6
Continuous
 62
     7
370
    15
100
AcDbCircle
 10
-24.4488428243
 20
-6.4815587122
 30
0.0
 40
0.1599999999999994
100
AcDbArc
 50
357.3027318661
 51
182.6972681339
  0
ARC
  5
19B
330
1F
100
AcDbEntity
  8
0
  6
Continuous
 62
     7
370
    15
100
AcDbCircle
 10
-24.4488428243
 20
-8.1815587122
 30
0.0
 40
1.700000000000003
100
AcDbArc
 50
95.3945362679
 51
264.6054637321
  0
ARC
  5
19C
330
1F
100
AcDbEntity
  8
0
  6
Continuous
 62
     7
370
    15
100
AcDbCircle
 10
-21.7288428243
 20
-14.3256532004
 30
0.0
 40
0.160000000000003
100
AcDbArc
 50
177.3027318661
 51
2.6972681339
  0
ARC
  5
19D
330
1F
100
AcDbEntity
  8
0
  6
Continuous
 62
     7
370
    15
100
AcDbCircle
 10
-21.7288428243
 20
-12.6256532004
 30
0.0
 40
1.700000000000006
100
AcDbArc
 50
275.3945362679
 51
84.6054637321
  0
ARC
  5
19E
330
1F
100
AcDbEntity
  8
0
  6
Continuous
 62
     7
370
    15
100
AcDbCircle
 10
-21.7288428243
 20
-10.9256532004
 30
0.0
 40
0.1600000000000031
100
AcDbArc
 50
357.3027318661
 51
182.6972681339
  0
ARC
  5
19F
330
1F
100
AcDbEntity
  8
0
  6
Continuous
 62
     7
370
    15
100
AcDbCircle
 10
-21.7288428243
 20
-12.6256532004
 30
0.0
 40
1.700000000000006
100
AcDbArc
 50
95.3945362679
 51
264.6054637321
  0
ARC
  5
1A0
330
1F
100
AcDbEntity
  8
0
  6
Continuous
 62
     7
370
    15
100
AcDbCircle
 10
-16.294197155
 20
-14.3256532004
 30
0.0
 40
0.1600000000000028
100
AcDbArc
 50
177.3027318661
 51
2.6972681339
  0
ARC
  5
1A1
330
1F
100
AcDbEntity
  8
0
  6
Continuous
 62
     7
370
    15
100
AcDbCircle
 10
-16.294197155
 20
-12.6256532004
 30
0.0
 40
1.700000000000006
100
AcDbArc
 50
275.3945362679
 51
84.6054637321
  0
ARC
  5
1A2
330
1F
100
AcDbEntity
  8
0
  6
Continuous
 62
     7
370
    15
100
AcDbCircle
 10
-16.294197155
 20
-10.9256532004
 30
0.0
 40
0.160000000000003
100
AcDbArc
 50
357.3027318661
 51
182.6972681339
  0
ARC
  5
1A3
330
1F
100
AcDbEntity
  8
0
  6
Continuous
 62
     7
370
    15
100
AcDbCircle
 10
-16.294197155
 20
-12.6256532004
 30
0.0
 40
1.700000000000007
100
AcDbArc
 50
95.3945362679
 51
264.6054637321
  0
ARC
  5
1A4
330
1F
100
AcDbEntity
  8
0
  6
Continuous
 62
     7
370
    15
100
AcDbCircle
 10
-19.014197155
 20
-9.8815587122
 30
0.0
 40
0.1599999999999995
100
AcDbArc
 50
177.3027318661
 51
2.6972681339
  0
ARC
  5
1A5
330
1F
100
AcDbEntity
  8
0
  6
Continuous
 62
     7
370
    15
100
AcDbCircle
 10
-19.014197155
 20
-8.1815587122
 30
0.0
 40
1.700000000000003
100
AcDbArc
 50
275.3945362679
 51
84.6054637321
  0
ARC
  5
1A6
330
1F
100
AcDbEntity
  8
0
  6
Continuous
 62
     7
370
    15
100
AcDbCircle
 10
-19.014197155
 20
-6.4815587122
 30
0.0
 40
0.1599999999999995
100
AcDbArc
 50
357.3027318661
 51
182.6972681339
  0
ARC
  5
1A7
330
1F
100
AcDbEntity
  8
0
  6
Continuous
 62
     7
370
    15
100
AcDbCircle
 10
-19.014197155
 20
-8.1815587122
 30
0.0
 40
1.700000000000003
100
AcDbArc
 50
95.3945362679
 51
264.6054637321
  0
ARC
  5
1A8
330
1F
100
AcDbEntity
  8
0
  6
Continuous
 62
     7
370
    15
100
AcDbCircle
 10
-16.294197155
 20
-5.437464224
 30
0.0
 40
0.1600000000000029
100
AcDbArc
 50
177.3027318661
 51
2.6972681339
  0
ARC
  5
1A9
330
1F
100
AcDbEntity
  8
0
  6
Continuous
 62
     7
370
    15
100
AcDbCircle
 10
-16.294197155
 20
-3.737464224
 30
0.0
 40
1.700000000000002
100
AcDbArc
 50
275.3945362679
 51
84.6054637321
  0
ARC
  5
1AA
330
1F
100
AcDbEntity
  8
0
  6
Continuous
 62
     7
370
    15
100
AcDbCircle
 10
-16.294197155
 20
-2.037464224
 30
0.0
 40
0.1600000000000031
100
AcDbArc
 50
357.3027318661
 51
182.6972681339
  0
ARC
  5
1AB
330
1F
100
AcDbEntity
  8
0
  6
Continuous
 62
     7
370
    15
100
AcDbCircle
 10
-16.294197155
 20
-3.737464224
 30
0.0
 40
1.700000000000001
100
AcDbArc
 50
95.3945362679
 51
264.6054637321
  0
ARC
  5
1AC
330
1F
100
AcDbEntity
  8
0
  6
Continuous
 62
     7
370
    15
100
AcDbCircle
 10
-13.5795514857
 20
-0.9933697358
 30
0.0
 40
0.1600000000000014
100
AcDbArc
 50
177.3027318661
 51
2.6972681339
  0
ARC
  5
1AD
330
1F
100
AcDbEntity
  8
0
  6
Continuous
 62
     7
370
    15
100
AcDbCircle
 10
-13.5795514857
 20
0.7066302642
 30
0.0
 40
1.699999999999999
100
AcDbArc
 50
275.3945362679
 51
84.6054637321
  0
ARC
  5
1AE
330
1F
100
AcDbEntity
  8
0
  6
Continuous
 62
     7
370
    15
100
AcDbCircle
 10
-13.5795514857
 20
2.4066302642
 30
0.0
 40
0.1600000000000012
100
AcDbArc
 50
357.3027318661
 51
182.6972681339
  0
ARC
  5
1AF
330
1F
100
AcDbEntity
  8
0
  6
Continuous
 62
     7
370
    15
100
AcDbCircle
 10
-13.5795514857
 20
0.7066302642
 30
0.0
 40
1.700000000000001
100
AcDbArc
 50
95.3945362679
 51
264.6054637321
  0
ARC
  5
1B0
330
1F
100
AcDbEntity
  8
0
  6
Continuous
 62
     7
370
    15
100
AcDbCircle
 10
-10.8595514857
 20
-5.437464224
 30
0.0
 40
0.1600000000000029
100
AcDbArc
 50
177.3027318661
 51
2.6972681339
  0
ARC
  5
1B1
330
1F
100
AcDbEntity
  8
0
  6
Continuous
 62
     7
370
    15
100
AcDbCircle
 10
-10.8595514857
 20
-3.737464224
 30
0.0
 40
1.700000000000001
100
AcDbArc
 50
275.3945362679
 51
84.6054637321
  0
ARC
  5
1B2
330
1F
100
AcDbEntity
  8
0
  6
Continuous
 62
     7
370
    15
100
AcDbCircle
 10
-10.8595514857
 20
-2.037464224
 30
0.0
 40
0.160000000000003
100
AcDbArc
 50
357.3027318661
 51
182.6972681339
  0
ARC
  5
1B3
330
1F
100
AcDbEntity
  8
0
  6
Continuous
 62
     7
370
    15
100
AcDbCircle
 10
-10.8595514857
 20
-3.737464224
 30
0.0
 40
1.700000000000001
100
AcDbArc
 50
95.3945362679
 51
264.6054637321
  0
ARC
  5
1B4
330
1F
100
AcDbEntity
  8
0
  6
Continuous
 62
     7
370
    15
100
AcDbCircle
 10
-13.5795514857
 20
-9.8815587122
 30
0.0
 40
0.1600000000000011
100
AcDbArc
 50
177.3027318661
 51
2.6972681339
  0
ARC
  5
1B5
330
1F
100
AcDbEntity
  8
0
  6
Continuous
 62
     7
370
    15
100
AcDbCircle
 10
-13.5795514857
 20
-8.1815587122
 30
0.0
 40
1.700000000000004
100
AcDbArc
 50
275.3945362679
 51
84.6054637321
  0
ARC
  5
1B6
330
1F
100
AcDbEntity
  8
0
  6
Continuous
 62
     7
370
    15
100
AcDbCircle
 10
-13.5795514857
 20
-6.4815587122
 30
0.0
 40
0.1600000000000011
100
AcDbArc
 50
357.3027318661
 51
182.6972681339
  0
ARC
  5
1B7
330
1F
100
AcDbEntity
  8
0
  6
Continuous
 62
     7
370
    15
100
AcDbCircle
 10
-13.5795514857
 20
-8.1815587122
 30
0.0
 40
1.700000000000003
100
AcDbArc
 50
95.3945362679
 51
264.6054637321
  0
ARC
  5
1B8
330
1F
100
AcDbEntity
  8
0
  6
Continuous
 62
     7
370
    15
100
AcDbCircle
 10
-10.8595514857
 20
-14.3256532004
 30
0.0
 40
0.1600000000000028
100
AcDbArc
 50
177.3027318661
 51
2.6972681339
  0
ARC
  5
1B9
330
1F
100
AcDbEntity
  8
0
  6
Continuous
 62
     7
370
    15
100
AcDbCircle
 10
-10.8595514857
 20
-12.6256532004
 30
0.0
 40
1.700000000000006
100
AcDbArc
 50
275.3945362679
 51
84.6054637321
  0
ARC
  5
1BA
330
1F
100
AcDbEntity
  8
0
  6
Continuous
 62
     7
370
    15
100
AcDbCircle
 10
-10.8595514857
 20
-10.9256532004
 30
0.0
 40
0.160000000000003
100
AcDbArc
 50
357.3027318661
 51
182.6972681339
  0
ARC
  5
1BB
330
1F
100
AcDbEntity
  8
0
  6
Continuous
 62
     7
370
    15
100
AcDbCircle
 10
-10.8595514857
 20
-12.6256532004
 30
0.0
 40
1.700000000000006
100
AcDbArc
 50
95.3945362679
 51
264.6054637321
  0
ARC
  5
1BC
330
1F
100
AcDbEntity
  8
0
  6
Continuous
 62
     7
370
    15
100
AcDbCircle
 10
-8.1449058164
 20
-9.8815587122
 30
0.0
 40
0.1600000000000011
100
AcDbArc
 50
177.3027318661
 51
2.6972681339
  0
ARC
  5
1BD
330
1F
100
AcDbEntity
  8
0
  6
Continuous
 62
     7
370
    15
100
AcDbCircle
 10
-8.1449058164
 20
-8.1815587122
 30
0.0
 40
1.700000000000004
100
AcDbArc
 50
275.3945362679
 51
84.6054637321
  0
ARC
  5
1BE
330
1F
100
AcDbEntity
  8
0
  6
Continuous
 62
     7
370
    15
100
AcDbCircle
 10
-8.1449058164
 20
-6.4815587122
 30
0.0
 40
0.1599999999999995
100
AcDbArc
 50
357.3027318661
 51
182.6972681339
  0
ARC
  5
1BF
330
1F
100
AcDbEntity
  8
0
  6
Continuous
 62
     7
370
    15
100
AcDbCircle
 10
-8.1449058164
 20
-8.1815587122
 30
0.0
 40
1.700000000000003
100
AcDbArc
 50
95.3945362679
 51
264.6054637321
  0
ARC
  5
1C0
330
1F
100
AcDbEntity
  8
0
  6
Continuous
 62
     7
370
    15
100
AcDbCircle
 10
-5.4249058164
 20
-5.437464224
 30
0.0
 40
0.1599999999999995
100
AcDbArc
 50
177.3027318661
 51
2.6972681339
  0
ARC
  5
1C1
330
1F
100
AcDbEntity
  8
0
  6
Continuous
 62
     7
370
    15
100
AcDbCircle
 10
-5.4249058164
 20
-3.737464224
 30
0.0
 40
1.700000000000001
100
AcDbArc
 50
275.3945362679
 51
84.6054637321
  0
ARC
  5
1C2
330
1F
100
AcDbEntity
  8
0
  6
Continuous
 62
     7
370
    15
100
AcDbCircle
 10
-5.4249058164
 20
-2.037464224
 30
0.0
 40
0.1600000000000004
100
AcDbArc
 50
357.3027318661
 51
182.6972681339
  0
ARC
  5
1C3
330
1F
100
AcDbEntity
  8
0
  6
Continuous
 62
     7
370
    15
100
AcDbCircle
 10
-5.4249058164
 20
-3.737464224
 30
0.0
 40
1.700000000000001
100
AcDbArc
 50
95.3945362679
 51
264.6054637321
  0
ARC
  5
1C4
330
1F
100
AcDbEntity
  8
0
  6
Continuous
 62
     7
370
    15
100
AcDbCircle
 10
-8.1449058164
 20
-0.9933697358
 30
0.0
 40
0.1599999999999995
100
AcDbArc
 50
177.3027318661
 51
2.6972681339
  0
ARC
  5
1C5
330
1F
100
AcDbEntity
  8
0
  6
Continuous
 62
     7
370
    15
100
AcDbCircle
 10
-8.1449058164
 20
0.7066302642
 30
0.0
 40
1.699999999999998
100
AcDbArc
 50
275.3945362679
 51
84.6054637321
  0
ARC
  5
1C6
330
1F
100
AcDbEntity
  8
0
  6
Continuous
 62
     7
370
    15
100
AcDbCircle
 10
-8.1449058164
 20
2.4066302642
 30
0.0
 40
0.1599999999999996
100
AcDbArc
 50
357.3027318661
 51
182.6972681339
  0
ARC
  5
1C7
330
1F
100
AcDbEntity
  8
0
  6
Continuous
 62
     7
370
    15
100
AcDbCircle
 10
-8.1449058164
 20
0.7066302642
 30
0.0
 40
1.700000000000001
100
AcDbArc
 50
95.3945362679
 51
264.6054637321
  0
ARC
  5
1C8
330
1F
100
AcDbEntity
  8
0
  6
Continuous
 62
     7
370
    15
100
AcDbCircle
 10
-2.7102601471
 20
-0.9933697358
 30
0.0
 40
0.1600000000000005
100
AcDbArc
 50
177.3027318661
 51
2.6972681339
  0
ARC
  5
1C9
330
1F
100
AcDbEntity
  8
0
  6
Continuous
 62
     7
370
    15
100
AcDbCircle
 10
-2.7102601471
 20
0.7066302642
 30
0.0
 40
1.699999999999998
100
AcDbArc
 50
275.3945362679
 51
84.6054637321
  0
ARC
  5
1CA
330
1F
100
AcDbEntity
  8
0
  6
Continuous
 62
     7
370
    15
100
AcDbCircle
 10
-2.7102601471
 20
2.4066302642
 30
0.0
 40
0.1600000000000003
100
AcDbArc
 50
357.3027318661
 51
182.6972681339
  0
ARC
  5
1CB
330
1F
100
AcDbEntity
  8
0
  6
Continuous
 62
     7
370
    15
100
AcDbCircle
 10
-2.7102601471
 20
0.7066302642
 30
0.0
 40
1.700000000000001
100
AcDbArc
 50
95.3945362679
 51
264.6054637321
  0
ARC
  5
1CC
330
1F
100
AcDbEntity
  8
0
  6
Continuous
 62
     7
370
    15
100
AcDbCircle
 10
-5.4275829818
 20
4.5269452248
 30
0.0
 40
0.1599999999999994
100
AcDbArc
 50
177.3027318661
 51
2.6972681339
  0
ARC
  5
1CD
330
1F
100
AcDbEntity
  8
0
  6
Continuous
 62
     7
370
    15
100
AcDbCircle
 10
-5.4275829818
 20
6.2269452248
 30
0.0
 40
1.700000000000001
100
AcDbArc
 50
275.3945362679
 51
84.6054637321
  0
ARC
  5
1CE
330
1F
100
AcDbEntity
  8
0
  6
Continuous
 62
     7
370
    15
100
AcDbCircle
 10
-5.4275829818
 20
7.9269452248
 30
0.0
 40
0.1599999999999995
100
AcDbArc
 50
357.3027318661
 51
182.6972681339
  0
ARC
  5
1CF
330
1F
100
AcDbEntity
  8
0
  6
Continuous
 62
     7
370
    15
100
AcDbCircle
 10
-5.4275829818
 20
6.2269452248
 30
0.0
 40
1.700000000000001
100
AcDbArc
 50
95.3945362679
 51
264.6054637321
  0
ARC
  5
1D0
330
1F
100
AcDbEntity
  8
0
  6
Continuous
 62
     7
370
    15
100
AcDbCircle
 10
-2.7495609345
 20
8.971039713
 30
0.0
 40
0.1600000000000008
100
AcDbArc
 50
177.3027318661
 51
2.6972681339
  0
ARC
  5
1D1
330
1F
100
AcDbEntity
  8
0
  6
Continuous
 62
     7
370
    15
100
AcDbCircle
 10
-2.7495609345
 20
10.671039713
 30
0.0
 40
1.700000000000002
100
AcDbArc
 50
275.3945362679
 51
84.6054637321
  0
ARC
  5
1D2
330
1F
100
AcDbEntity
  8
0
  6
Continuous
 62
     7
370
    15
100
AcDbCircle
 10
-2.7495609345
 20
12.371039713
 30
0.0
 40
0.1600000000000006
100
AcDbArc
 50
357.3027318661
 51
182.6972681339
  0
ARC
  5
1D3
330
1F
100
AcDbEntity
  8
0
  6
Continuous
 62
     7
370
    15
100
AcDbCircle
 10
-2.7495609345
 20
10.671039713
 30
0.0
 40
1.700000000000001
100
AcDbArc
 50
95.3945362679
 51
264.6054637321
  0
ARC
  5
1D4
330
1F
100
AcDbEntity
  8
0
  6
Continuous
 62
     7
370
    15
100
AcDbCircle
 10
2.6850847348
 20
8.971039713
 30
0.0
 40
0.1600000000000008
100
AcDbArc
 50
177.3027318661
 51
2.6972681339
  0
ARC
  5
1D5
330
1F
100
AcDbEntity
  8
0
  6
Continuous
 62
     7
370
    15
100
AcDbCircle
 10
2.6850847348
 20
10.671039713
 30
0.0
 40
1.700000000000005
100
AcDbArc
 50
275.3945362679
 51
84.6054637321
  0
ARC
  5
1D6
330
1F
100
AcDbEntity
  8
0
  6
Continuous
 62
     7
370
    15
100
AcDbCircle
 10
2.6850847348
 20
12.371039713
 30
0.0
 40
0.1600000000000001
100
AcDbArc
 50
357.3027318661
 51
182.6972681339
  0
ARC
  5
1D7
330
1F
100
AcDbEntity
  8
0
  6
Continuous
 62
     7
370
    15
100
AcDbCircle
 10
2.6850847348
 20
10.671039713
 30
0.0
 40
1.700000000000001
100
AcDbArc
 50
95.3945362679
 51
264.6054637321
  0
ARC
  5
1D8
330
1F
100
AcDbEntity
  8
0
  6
Continuous
 62
     7
370
    15
100
AcDbCircle
 10
0.0070626875
 20
4.5269452248
 30
0.0
 40
0.1599999999999996
100
AcDbArc
 50
177.3027318661
 51
2.6972681339
  0
ARC
  5
1D9
330
1F
100
AcDbEntity
  8
0
  6
Continuous
 62
     7
370
    15
100
AcDbCircle
 10
0.0070626875
 20
6.2269452248
 30
0.0
 40
1.700000000000002
100
AcDbArc
 50
275.3945362679
 51
84.6054637321
  0
ARC
  5
1DA
330
1F
100
AcDbEntity
  8
0
  6
Continuous
 62
     7
370
    15
100
AcDbCircle
 10
0.0070626875
 20
7.9269452248
 30
0.0
 40
0.1599999999999999
100
AcDbArc
 50
357.3027318661
 51
182.6972681339
  0
ARC
  5
1DB
330
1F
100
AcDbEntity
  8
0
  6
Continuous
 62
     7
370
    15
100
AcDbCircle
 10
0.0070626875
 20
6.2269452248
 30
0.0
 40
1.700000000000001
100
AcDbArc
 50
95.3945362679
 51
264.6054637321
  0
ARC
  5
1DC
330
1F
100
AcDbEntity
  8
0
  6
Continuous
 62
     7
370
    15
100
AcDbCircle
 10
2.7243855222
 20
-0.9933697358
 30
0.0
 40
0.1600000000000004
100
AcDbArc
 50
177.3027318661
 51
2.6972681339
  0
ARC
  5
1DD
330
1F
100
AcDbEntity
  8
0
  6
Continuous
 62
     7
370
    15
100
AcDbCircle
 10
2.7243855222
 20
0.7066302642
 30
0.0
 40
1.700000000000001
100
AcDbArc
 50
275.3945362679
 51
84.6054637321
  0
ARC
  5
1DE
330
1F
100
AcDbEntity
  8
0
  6
Continuous
 62
     7
370
    15
100
AcDbCircle
 10
2.7243855222
 20
2.4066302642
 30
0.0
 40
0.16
100
AcDbArc
 50
357.3027318661
 51
182.6972681339
  0
ARC
  5
1DF
330
1F
100
AcDbEntity
  8
0
  6
Continuous
 62
     7
370
    15
100
AcDbCircle
 10
2.7243855222
 20
0.7066302642
 30
0.0
 40
1.700000000000001
100
AcDbArc
 50
95.3945362679
 51
264.6054637321
  0
ARC
  5
1E0
330
1F
100
AcDbEntity
  8
0
  6
Continuous
 62
     7
370
    15
100
AcDbCircle
 10
0.006098908
 20
-5.437464224
 30
0.0
 40
0.1599999999999996
100
AcDbArc
 50
177.3027318661
 51
2.6972681339
  0
ARC
  5
1E1
330
1F
100
AcDbEntity
  8
0
  6
Continuous
 62
     7
370
    15
100
AcDbCircle
 10
0.006098908
 20
-3.737464224
 30
0.0
 40
1.700000000000001
100
AcDbArc
 50
275.3945362679
 51
84.6054637321
  0
ARC
  5
1E2
330
1F
100
AcDbEntity
  8
0
  6
Continuous
 62
     7
370
    15
100
AcDbCircle
 10
0.006098908
 20
-2.037464224
 30
0.0
 40
0.1599999999999999
100
AcDbArc
 50
357.3027318661
 51
182.6972681339
  0
ARC
  5
1E3
330
1F
100
AcDbEntity
  8
0
  6
Continuous
 62
     7
370
    15
100
AcDbCircle
 10
0.006098908
 20
-3.737464224
 30
0.0
 40
1.700000000000001
100
AcDbArc
 50
95.3945362679
 51
264.6054637321
  0
ARC
  5
1E4
330
1F
100
AcDbEntity
  8
0
  6
Continuous
 62
     7
370
    15
100
AcDbCircle
 10
-2.7102601471
 20
-9.8815587122
 30
0.0
 40
0.1600000000000004
100
AcDbArc
 50
177.3027318661
 51
2.6972681339
  0
ARC
  5
1E5
330
1F
100
AcDbEntity
  8
0
  6
Continuous
 62
     7
370
    15
100
AcDbCircle
 10
-2.7102601471
 20
-8.1815587122
 30
0.0
 40
1.700000000000003
100
AcDbArc
 50
275.3945362679
 51
84.6054637321
  0
ARC
  5
1E6
330
1F
100
AcDbEntity
  8
0
  6
Continuous
 62
     7
370
    15
100
AcDbCircle
 10
-2.7102601471
 20
-6.4815587122
 30
0.0
 40
0.1600000000000004
100
AcDbArc
 50
357.3027318661
 51
182.6972681339
  0
ARC
  5
1E7
330
1F
100
AcDbEntity
  8
0
  6
Continuous
 62
     7
370
    15
100
AcDbCircle
 10
-2.7102601471
 20
-8.1815587122
 30
0.0
 40
1.700000000000003
100
AcDbArc
 50
95.3945362679
 51
264.6054637321
  0
ARC
  5
1E8
330
1F
100
AcDbEntity
  8
0
  6
Continuous
 62
     7
370
    15
100
AcDbCircle
 10
-3.8358778601
 20
-14.9265935381
 30
0.0
 40
0.1600000000000008
100
AcDbArc
 50
177.3027318661
 51
2.6972681339
  0
ARC
  5
1E9
330
1F
100
AcDbEntity
  8
0
  6
Continuous
 62
     7
370
    15
100
AcDbCircle
 10
-3.8358778601
 20
-13.2265935381
 30
0.0
 40
1.700000000000003
100
AcDbArc
 50
275.3945362679
 51
84.6054637321
  0
ARC
  5
1EA
330
1F
100
AcDbEntity
  8
0
  6
Continuous
 62
     7
370
    15
100
AcDbCircle
 10
-3.8358778601
 20
-11.5265935381
 30
0.0
 40
0.1600000000000009
100
AcDbArc
 50
357.3027318661
 51
182.6972681339
  0
ARC
  5
1EB
330
1F
100
AcDbEntity
  8
0
  6
Continuous
 62
     7
370
    15
100
AcDbCircle
 10
-3.8358778601
 20
-13.2265935381
 30
0.0
 40
1.700000000000003
100
AcDbArc
 50
95.3945362679
 51
264.6054637321
  0
ARC
  5
1EC
330
1F
100
AcDbEntity
  8
0
  6
Continuous
 62
     7
370
    15
100
AcDbCircle
 10
0.0186280418
 20
-20.4938421767
 30
0.0
 40
0.1599999999999999
100
AcDbArc
 50
177.3027318661
 51
2.6972681339
  0
ARC
  5
1ED
330
1F
100
AcDbEntity
  8
0
  6
Continuous
 62
     7
370
    15
100
AcDbCircle
 10
0.0186280418
 20
-18.7938421767
 30
0.0
 40
1.700000000000005
100
AcDbArc
 50
275.3945362679
 51
84.6054637321
  0
ARC
  5
1EE
330
1F
100
AcDbEntity
  8
0
  6
Continuous
 62
     7
370
    15
100
AcDbCircle
 10
0.0186280418
 20
-17.0938421767
 30
0.0
 40
0.16
100
AcDbArc
 50
357.3027318661
 51
182.6972681339
  0
ARC
  5
1EF
330
1F
100
AcDbEntity
  8
0
  6
Continuous
 62
     7
370
    15
100
AcDbCircle
 10
0.0186280418
 20
-18.7938421767
 30
0.0
 40
1.700000000000006
100
AcDbArc
 50
95.3945362679
 51
264.6054637321
  0
ARC
  5
1F0
330
1F
100
AcDbEntity
  8
0
  6
Continuous
 62
     7
370
    15
100
AcDbCircle
 10
4.2073996625
 20
-14.8985665862
 30
0.0
 40
0.1600000000000003
100
AcDbArc
 50
177.3027318661
 51
2.6972681339
  0
ARC
  5
1F1
330
1F
100
AcDbEntity
  8
0
  6
Continuous
 62
     7
370
    15
100
AcDbCircle
 10
4.2073996625
 20
-13.1985665862
 30
0.0
 40
1.700000000000003
100
AcDbArc
 50
275.3945362679
 51
84.6054637321
  0
ARC
  5
1F2
330
1F
100
AcDbEntity
  8
0
  6
Continuous
 62
     7
370
    15
100
AcDbCircle
 10
4.2073996625
 20
-11.4985665862
 30
0.0
 40
0.1600000000000004
100
AcDbArc
 50
357.3027318661
 51
182.6972681339
  0
ARC
  5
1F3
330
1F
100
AcDbEntity
  8
0
  6
Continuous
 62
     7
370
    15
100
AcDbCircle
 10
4.2073996625
 20
-13.1985665862
 30
0.0
 40
1.700000000000003
100
AcDbArc
 50
95.3945362679
 51
264.6054637321
  0
ARC
  5
1F4
330
1F
100
AcDbEntity
  8
0
  6
Continuous
 62
     7
370
    15
100
AcDbCircle
 10
2.7243855222
 20
-9.8815587122
 30
0.0
 40
0.1600000000000002
100
AcDbArc
 50
177.3027318661
 51
2.6972681339
  0
ARC
  5
1F5
330
1F
100
AcDbEntity
  8
0
  6
Continuous
 62
     7
370
    15
100
AcDbCircle
 10
2.7243855222
 20
-8.1815587122
 30
0.0
 40
1.700000000000004
100
AcDbArc
 50
275.3945362679
 51
84.6054637321
  0
ARC
  5
1F6
330
1F
100
AcDbEntity
  8
0
  6
Continuous
 62
     7
370
    15
100
AcDbCircle
 10
2.7243855222
 20
-6.4815587122
 30
0.0
 40
0.1600000000000003
100
AcDbArc
 50
357.3027318661
 51
182.6972681339
  0
ARC
  5
1F7
330
1F
100
AcDbEntity
  8
0
  6
Continuous
 62
     7
370
    15
100
AcDbCircle
 10
2.7243855222
 20
-8.1815587122
 30
0.0
 40
1.700000000000003
100
AcDbArc
 50
95.3945362679
 51
264.6054637321
  0
ARC
  5
1F8
330
1F
100
AcDbEntity
  8
0
  6
Continuous
 62
     7
370
    15
100
AcDbCircle
 10
5.4443855222
 20
-5.437464224
 30
0.0
 40
0.1599999999999994
100
AcDbArc
 50
177.3027318661
 51
2.6972681339
  0
ARC
  5
1F9
330
1F
100
AcDbEntity
  8
0
  6
Continuous
 62
     7
370
    15
100
AcDbCircle
 10
5.4443855222
 20
-3.737464224
 30
0.0
 40
1.700000000000001
100
AcDbArc
 50
275.3945362679
 51
84.6054637321
  0
ARC
  5
1FA
330
1F
100
AcDbEntity
  8
0
  6
Continuous
 62
     7
370
    15
100
AcDbCircle
 10
5.4443855222
 20
-2.037464224
 30
0.0
 40
0.1599999999999996
100
AcDbArc
 50
357.3027318661
 51
182.6972681339
  0
ARC
  5
1FB
330
1F
100
AcDbEntity
  8
0
  6
Continuous
 62
     7
370
    15
100
AcDbCircle
 10
5.4443855222
 20
-3.737464224
 30
0.0
 40
1.700000000000001
100
AcDbArc
 50
95.3945362679
 51
264.6054637321
  0
ARC
  5
1FC
330
1F
100
AcDbEntity
  8
0
  6
Continuous
 62
     7
370
    15
100
AcDbCircle
 10
8.1590311915
 20
-0.9933697358
 30
0.0
 40
0.1600000000000013
100
AcDbArc
 50
177.3027318661
 51
2.6972681339
  0
ARC
  5
1FD
330
1F
100
AcDbEntity
  8
0
  6
Continuous
 62
     7
370
    15
100
AcDbCircle
 10
8.1590311915
 20
0.7066302642
 30
0.0
 40
1.700000000000001
100
AcDbArc
 50
275.3945362679
 51
84.6054637321
  0
ARC
  5
1FE
330
1F
100
AcDbEntity
  8
0
  6
Continuous
 62
     7
370
    15
100
AcDbCircle
 10
8.1590311915
 20
2.4066302642
 30
0.0
 40
0.1599999999999996
100
AcDbArc
 50
357.3027318661
 51
182.6972681339
  0
ARC
  5
1FF
330
1F
100
AcDbEntity
  8
0
  6
Continuous
 62
     7
370
    15
100
AcDbCircle
 10
8.1590311915
 20
0.7066302642
 30
0.0
 40
1.700000000000001
100
AcDbArc
 50
95.3945362679
 51
264.6054637321
  0
ARC
  5
200
330
1F
100
AcDbEntity
  8
0
  6
Continuous
 62
     7
370
    15
100
AcDbCircle
 10
5.4417083568
 20
4.5269452248
 30
0.0
 40
0.1600000000000003
100
AcDbArc
 50
177.3027318661
 51
2.6972681339
  0
ARC
  5
201
330
1F
100
AcDbEntity
  8
0
  6
Continuous
 62
     7
370
    15
100
AcDbCircle
 10
5.4417083568
 20
6.2269452248
 30
0.0
 40
1.700000000000001
100
AcDbArc
 50
275.3945362679
 51
84.6054637321
  0
ARC
  5
202
330
1F
100
AcDbEntity
  8
0
  6
Continuous
 62
     7
370
    15
100
AcDbCircle
 10
5.4417083568
 20
7.9269452248
 30
0.0
 40
0.1600000000000004
100
AcDbArc
 50
357.3027318661
 51
182.6972681339
  0
ARC
  5
203
330
1F
100
AcDbEntity
  8
0
  6
Continuous
 62
     7
370
    15
100
AcDbCircle
 10
5.4417083568
 20
6.2269452248
 30
0.0
 40
1.700000000000001
100
AcDbArc
 50
95.3945362679
 51
264.6054637321
  0
ARC
  5
204
330
1F
100
AcDbEntity
  8
0
  6
Continuous
 62
     7
370
    15
100
AcDbCircle
 10
8.1197304041
 20
8.971039713
 30
0.0
 40
0.1600000000000003
100
AcDbArc
 50
177.3027318661
 51
2.6972681339
  0
ARC
  5
205
330
1F
100
AcDbEntity
  8
0
  6
Continuous
 62
     7
370
    15
100
AcDbCircle
 10
8.1197304041
 20
10.671039713
 30
0.0
 40
1.700000000000001
100
AcDbArc
 50
275.3945362679
 51
84.6054637321
  0
ARC
  5
206
330
1F
100
AcDbEntity
  8
0
  6
Continuous
 62
     7
370
    15
100
AcDbCircle
 10
8.1197304041
 20
12.371039713
 30
0.0
 40
0.1600000000000006
100
AcDbArc
 50
357.3027318661
 51
182.6972681339
  0
ARC
  5
207
330
1F
100
AcDbEntity
  8
0
  6
Continuous
 62
     7
370
    15
100
AcDbCircle
 10
8.1197304041
 20
10.671039713
 30
0.0
 40
1.700000000000001
100
AcDbArc
 50
95.3945362679
 51
264.6054637321
  0
ARC
  5
208
330
1F
100
AcDbEntity
  8
0
  6
Continuous
 62
     7
370
    15
100
AcDbCircle
 10
13.5543760733
 20
8.971039713
 30
0.0
 40
0.1600000000000031
100
AcDbArc
 50
177.3027318661
 51
2.6972681339
  0
ARC
  5
209
330
1F
100
AcDbEntity
  8
0
  6
Continuous
 62
     7
370
    15
100
AcDbCircle
 10
13.5543760733
 20
10.671039713
 30
0.0
 40
1.700000000000002
100
AcDbArc
 50
275.3945362679
 51
84.6054637321
  0
ARC
  5
20A
330
1F
100
AcDbEntity
  8
0
  6
Continuous
 62
     7
370
    15
100
AcDbCircle
 10
13.5543760733
 20
12.371039713
 30
0.0
 40
0.1600000000000032
100
AcDbArc
 50
357.3027318661
 51
182.6972681339
  0
ARC
  5
20B
330
1F
100
AcDbEntity
  8
0
  6
Continuous
 62
     7
370
    15
100
AcDbCircle
 10
13.5543760733
 20
10.671039713
 30
0.0
 40
1.700000000000001
100
AcDbArc
 50
95.3945362679
 51
264.6054637321
  0
ARC
  5
20C
330
1F
100
AcDbEntity
  8
0
  6
Continuous
 62
     7
370
    15
100
AcDbCircle
 10
10.8763540261
 20
4.5269452248
 30
0.0
 40
0.160000000000003
100
AcDbArc
 50
177.3027318661
 51
2.6972681339
  0
ARC
  5
20D
330
1F
100
AcDbEntity
  8
0
  6
Continuous
 62
     7
370
    15
100
AcDbCircle
 10
10.8763540261
 20
6.2269452248
 30
0.0
 40
1.700000000000002
100
AcDbArc
 50
275.3945362679
 51
84.6054637321
  0
ARC
  5
20E
330
1F
100
AcDbEntity
  8
0
  6
Continuous
 62
     7
370
    15
100
AcDbCircle
 10
10.8763540261
 20
7.9269452248
 30
0.0
 40
0.1600000000000013
100
AcDbArc
 50
357.3027318661
 51
182.6972681339
  0
ARC
  5
20F
330
1F
100
AcDbEntity
  8
0
  6
Continuous
 62
     7
370
    15
100
AcDbCircle
 10
10.8763540261
 20
6.2269452248
 30
0.0
 40
1.700000000000001
100
AcDbArc
 50
95.3945362679
 51
264.6054637321
  0
ARC
  5
210
330
1F
100
AcDbEntity
  8
0
  6
Continuous
 62
     7
370
    15
100
AcDbCircle
 10
13.5936768607
 20
-0.9933697358
 30
0.0
 40
0.1600000000000013
100
AcDbArc
 50
177.3027318661
 51
2.6972681339
  0
ARC
  5
211
330
1F
100
AcDbEntity
  8
0
  6
Continuous
 62
     7
370
    15
100
AcDbCircle
 10
13.5936768607
 20
0.7066302642
 30
0.0
 40
1.700000000000001
100
AcDbArc
 50
275.3945362679
 51
84.6054637321
  0
ARC
  5
212
330
1F
100
AcDbEntity
  8
0
  6
Continuous
 62
     7
370
    15
100
AcDbCircle
 10
13.5936768607
 20
2.4066302642
 30
0.0
 40
0.1600000000000011
100
AcDbArc
 50
357.3027318661
 51
182.6972681339
  0
ARC
  5
213
330
1F
100
AcDbEntity
  8
0
  6
Continuous
 62
     7
370
    15
100
AcDbCircle
 10
13.5936768607
 20
0.7066302642
 30
0.0
 40
1.700000000000001
100
AcDbArc
 50
95.3945362679
 51
264.6054637321
  0
ARC
  5
214
330
1F
100
AcDbEntity
  8
0
  6
Continuous
 62
     7
370
    15
100
AcDbCircle
 10
10.8790311915
 20
-5.437464224
 30
0.0
 40
0.160000000000003
100
AcDbArc
 50
177.3027318661
 51
2.6972681339
  0
ARC
  5
215
330
1F
100
AcDbEntity
  8
0
  6
Continuous
 62
     7
370
    15
100
AcDbCircle
 10
10.8790311915
 20
-3.737464224
 30
0.0
 40
1.700000000000001
100
AcDbArc
 50
275.3945362679
 51
84.6054637321
  0
ARC
  5
216
330
1F
100
AcDbEntity
  8
0
  6
Continuous
 62
     7
370
    15
100
AcDbCircle
 10
10.8790311915
 20
-2.037464224
 30
0.0
 40
0.160000000000003
100
AcDbArc
 50
357.3027318661
 51
182.6972681339
  0
ARC
  5
217
330
1F
100
AcDbEntity
  8
0
  6
Continuous
 62
     7
370
    15
100
AcDbCircle
 10
10.8790311915
 20
-3.737464224
 30
0.0
 40
1.700000000000001
100
AcDbArc
 50
95.3945362679
 51
264.6054637321
  0
ARC
  5
218
330
1F
100
AcDbEntity
  8
0
  6
Continuous
 62
     7
370
    15
100
AcDbCircle
 10
8.1590311915
 20
-9.8815587122
 30
0.0
 40
0.1599999999999993
100
AcDbArc
 50
177.3027318661
 51
2.6972681339
  0
ARC
  5
219
330
1F
100
AcDbEntity
  8
0
  6
Continuous
 62
     7
370
    15
100
AcDbCircle
 10
8.1590311915
 20
-8.1815587122
 30
0.0
 40
1.700000000000004
100
AcDbArc
 50
275.3945362679
 51
84.6054637321
  0
ARC
  5
21A
330
1F
100
AcDbEntity
  8
0
  6
Continuous
 62
     7
370
    15
100
AcDbCircle
 10
8.1590311915
 20
-6.4815587122
 30
0.0
 40
0.1599999999999995
100
AcDbArc
 50
357.3027318661
 51
182.6972681339
  0
ARC
  5
21B
330
1F
100
AcDbEntity
  8
0
  6
Continuous
 62
     7
370
    15
100
AcDbCircle
 10
8.1590311915
 20
-8.1815587122
 30
0.0
 40
1.700000000000003
100
AcDbArc
 50
95.3945362679
 51
264.6054637321
  0
ARC
  5
21C
330
1F
100
AcDbEntity
  8
0
  6
Continuous
 62
     7
370
    15
100
AcDbCircle
 10
10.8753902466
 20
-14.3256532004
 30
0.0
 40
0.160000000000003
100
AcDbArc
 50
177.3027318661
 51
2.6972681339
  0
ARC
  5
21D
330
1F
100
AcDbEntity
  8
0
  6
Continuous
 62
     7
370
    15
100
AcDbCircle
 10
10.8753902466
 20
-12.6256532004
 30
0.0
 40
1.700000000000007
100
AcDbArc
 50
275.3945362679
 51
84.6054637321
  0
ARC
  5
21E
330
1F
100
AcDbEntity
  8
0
  6
Continuous
 62
     7
370
    15
100
AcDbCircle
 10
10.8753902466
 20
-10.9256532004
 30
0.0
 40
0.160000000000003
100
AcDbArc
 50
357.3027318661
 51
182.6972681339
  0
ARC
  5
21F
330
1F
100
AcDbEntity
  8
0
  6
Continuous
 62
     7
370
    15
100
AcDbCircle
 10
10.8753902466
 20
-12.6256532004
 30
0.0
 40
1.700000000000006
100
AcDbArc
 50
95.3945362679
 51
264.6054637321
  0
ARC
  5
220
330
1F
100
AcDbEntity
  8
0
  6
Continuous
 62
     7
370
    15
100
AcDbCircle
 10
16.3100359159
 20
-14.3256532004
 30
0.0
 40
0.1599999999999994
100
AcDbArc
 50
177.3027318661
 51
2.6972681339
  0
ARC
  5
221
330
1F
100
AcDbEntity
  8
0
  6
Continuous
 62
     7
370
    15
100
AcDbCircle
 10
16.3100359159
 20
-12.6256532004
 30
0.0
 40
1.700000000000006
100
AcDbArc
 50
275.3945362679
 51
84.6054637321
  0
ARC
  5
222
330
1F
100
AcDbEntity
  8
0
  6
Continuous
 62
     7
370
    15
100
AcDbCircle
 10
16.3100359159
 20
-10.9256532004
 30
0.0
 40
0.1599999999999996
100
AcDbArc
 50
357.3027318661
 51
182.6972681339
  0
ARC
  5
223
330
1F
100
AcDbEntity
  8
0
  6
Continuous
 62
     7
370
    15
100
AcDbCircle
 10
16.3100359159
 20
-12.6256532004
 30
0.0
 40
1.700000000000006
100
AcDbArc
 50
95.3945362679
 51
264.6054637321
  0
ARC
  5
224
330
1F
100
AcDbEntity
  8
0
  6
Continuous
 62
     7
370
    15
100
AcDbCircle
 10
13.5936768607
 20
-9.8815587122
 30
0.0
 40
0.1599999999999995
100
AcDbArc
 50
177.3027318661
 51
2.6972681339
  0
ARC
  5
225
330
1F
100
AcDbEntity
  8
0
  6
Continuous
 62
     7
370
    15
100
AcDbCircle
 10
13.5936768607
 20
-8.1815587122
 30
0.0
 40
1.700000000000004
100
AcDbArc
 50
275.3945362679
 51
84.6054637321
  0
ARC
  5
226
330
1F
100
AcDbEntity
  8
0
  6
Continuous
 62
     7
370
    15
100
AcDbCircle
 10
13.5936768607
 20
-6.4815587122
 30
0.0
 40
0.160000000000001
100
AcDbArc
 50
357.3027318661
 51
182.6972681339
  0
ARC
  5
227
330
1F
100
AcDbEntity
  8
0
  6
Continuous
 62
     7
370
    15
100
AcDbCircle
 10
13.5936768607
 20
-8.1815587122
 30
0.0
 40
1.700000000000003
100
AcDbArc
 50
95.3945362679
 51
264.6054637321
  0
ARC
  5
228
330
1F
100
AcDbEntity
  8
0
  6
Continuous
 62
     7
370
    15
100
AcDbCircle
 10
16.3136768607
 20
-5.437464224
 30
0.0
 40
0.1600000000000028
100
AcDbArc
 50
177.3027318661
 51
2.6972681339
  0
ARC
  5
229
330
1F
100
AcDbEntity
  8
0
  6
Continuous
 62
     7
370
    15
100
AcDbCircle
 10
16.3136768607
 20
-3.737464224
 30
0.0
 40
1.700000000000002
100
AcDbArc
 50
275.3945362679
 51
84.6054637321
  0
ARC
  5
22A
330
1F
100
AcDbEntity
  8
0
  6
Continuous
 62
     7
370
    15
100
AcDbCircle
 10
16.3136768607
 20
-2.037464224
 30
0.0
 40
0.1600000000000031
100
AcDbArc
 50
357.3027318661
 51
182.6972681339
  0
ARC
  5
22B
330
1F
100
AcDbEntity
  8
0
  6
Continuous
 62
     7
370
    15
100
AcDbCircle
 10
16.3136768607
 20
-3.737464224
 30
0.0
 40
1.700000000000001
100
AcDbArc
 50
95.3945362679
 51
264.6054637321
  0
ARC
  5
22C
330
1F
100
AcDbEntity
  8
0
  6
Continuous
 62
     7
370
    15
100
AcDbCircle
 10
19.02832253
 20
-0.9933697358
 30
0.0
 40
0.1600000000000031
100
AcDbArc
 50
177.3027318661
 51
2.6972681339
  0
ARC
  5
22D
330
1F
100
AcDbEntity
  8
0
  6
Continuous
 62
     7
370
    15
100
AcDbCircle
 10
19.02832253
 20
0.7066302642
 30
0.0
 40
1.699999999999999
100
AcDbArc
 50
275.3945362679
 51
84.6054637321
  0
ARC
  5
22E
330
1F
100
AcDbEntity
  8
0
  6
Continuous
 62
     7
370
    15
100
AcDbCircle
 10
19.02832253
 20
2.4066302642
 30
0.0
 40
0.160000000000003
100
AcDbArc
 50
357.3027318661
 51
182.6972681339
  0
ARC
  5
22F
330
1F
100
AcDbEntity
  8
0
  6
Continuous
 62
     7
370
    15
100
AcDbCircle
 10
19.02832253
 20
0.7066302642
 30
0.0
 40
1.700000000000002
100
AcDbArc
 50
95.3945362679
 51
264.6054637321
  0
ARC
  5
230
330
1F
100
AcDbEntity
  8
0
  6
Continuous
 62
     7
370
    15
100
AcDbCircle
 10
16.3109996954
 20
4.5269452248
 30
0.0
 40
0.160000000000003
100
AcDbArc
 50
177.3027318661
 51
2.6972681339
  0
ARC
  5
231
330
1F
100
AcDbEntity
  8
0
  6
Continuous
 62
     7
370
    15
100
AcDbCircle
 10
16.3109996954
 20
6.2269452248
 30
0.0
 40
1.700000000000002
100
AcDbArc
 50
275.3945362679
 51
84.6054637321
  0
ARC
  5
232
330
1F
100
AcDbEntity
  8
0
  6
Continuous
 62
     7
370
    15
100
AcDbCircle
 10
16.3109996954
 20
7.9269452248
 30
0.0
 40
0.160000000000003
100
AcDbArc
 50
357.3027318661
 51
182.6972681339
  0
ARC
  5
233
330
1F
100
AcDbEntity
  8
0
  6
Continuous
 62
     7
370
    15
100
AcDbCircle
 10
16.3109996954
 20
6.2269452248
 30
0.0
 40
1.700000000000002
100
AcDbArc
 50
95.3945362679
 51
264.6054637321
  0
ARC
  5
234
330
1F
100
AcDbEntity
  8
0
  6
Continuous
 62
     7
370
    15
100
AcDbCircle
 10
18.9890217426
 20
8.971039713
 30
0.0
 40
0.1599999999999997
100
AcDbArc
 50
177.3027318661
 51
2.6972681339
  0
ARC
  5
235
330
1F
100
AcDbEntity
  8
0
  6
Continuous
 62
     7
370
    15
100
AcDbCircle
 10
18.9890217426
 20
10.671039713
 30
0.0
 40
1.700000000000002
100
AcDbArc
 50
275.3945362679
 51
84.6054637321
  0
ARC
  5
236
330
1F
100
AcDbEntity
  8
0
  6
Continuous
 62
     7
370
    15
100
AcDbCircle
 10
18.9890217426
 20
12.371039713
 30
0.0
 40
0.1599999999999997
100
AcDbArc
 50
357.3027318661
 51
182.6972681339
  0
ARC
  5
237
330
1F
100
AcDbEntity
  8
0
  6
Continuous
 62
     7
370
    15
100
AcDbCircle
 10
18.9890217426
 20
10.671039713
 30
0.0
 40
1.700000000000001
100
AcDbArc
 50
95.3945362679
 51
264.6054637321
  0
ARC
  5
238
330
1F
100
AcDbEntity
  8
0
  6
Continuous
 62
     7
370
    15
100
AcDbCircle
 10
24.900202845
 20
8.971039713
 30
0.0
 40
0.1599999999999996
100
AcDbArc
 50
177.3027318661
 51
2.6972681339
  0
ARC
  5
239
330
1F
100
AcDbEntity
  8
0
  6
Continuous
 62
     7
370
    15
100
AcDbCircle
 10
24.900202845
 20
10.671039713
 30
0.0
 40
1.700000000000002
100
AcDbArc
 50
275.3945362679
 51
84.6054637321
  0
ARC
  5
23A
330
1F
100
AcDbEntity
  8
0
  6
Continuous
 62
     7
370
    15
100
AcDbCircle
 10
24.900202845
 20
12.371039713
 30
0.0
 40
0.1599999999999994
100
AcDbArc
 50
357.3027318661
 51
182.6972681339
  0
ARC
  5
23B
330
1F
100
AcDbEntity
  8
0
  6
Continuous
 62
     7
370
    15
100
AcDbCircle
 10
24.900202845
 20
10.671039713
 30
0.0
 40
1.700000000000001
100
AcDbArc
 50
95.3945362679
 51
264.6054637321
  0
ARC
  5
23C
330
1F
100
AcDbEntity
  8
0
  6
Continuous
 62
     7
370
    15
100
AcDbCircle
 10
21.7456453647
 20
4.5269452248
 30
0.0
 40
0.1600000000000031
100
AcDbArc
 50
177.3027318661
 51
2.6972681339
  0
ARC
  5
23D
330
1F
100
AcDbEntity
  8
0
  6
Continuous
 62
     7
370
    15
100
AcDbCircle
 10
21.7456453647
 20
6.2269452248
 30
0.0
 40
1.700000000000001
100
AcDbArc
 50
275.3945362679
 51
84.6054637321
  0
ARC
  5
23E
330
1F
100
AcDbEntity
  8
0
  6
Continuous
 62
     7
370
    15
100
AcDbCircle
 10
21.7456453647
 20
7.9269452248
 30
0.0
 40
0.1600000000000032
100
AcDbArc
 50
357.3027318661
 51
182.6972681339
  0
ARC
  5
23F
330
1F
100
AcDbEntity
  8
0
  6
Continuous
 62
     7
370
    15
100
AcDbCircle
 10
21.7456453647
 20
6.2269452248
 30
0.0
 40
1.700000000000001
100
AcDbArc
 50
95.3945362679
 51
264.6054637321
  0
ARC
  5
240
330
1F
100
AcDbEntity
  8
0
  6
Continuous
 62
     7
370
    15
100
AcDbCircle
 10
24.4646815852
 20
-0.9933697358
 30
0.0
 40
0.1600000000000033
100
AcDbArc
 50
177.3027318661
 51
2.6972681339
  0
ARC
  5
241
330
1F
100
AcDbEntity
  8
0
  6
Continuous
 62
     7
370
    15
100
AcDbCircle
 10
24.4646815852
 20
0.7066302642
 30
0.0
 40
1.699999999999998
100
AcDbArc
 50
275.3945362679
 51
84.6054637321
  0
ARC
  5
242
330
1F
100
AcDbEntity
  8
0
  6
Continuous
 62
     7
370
    15
100
AcDbCircle
 10
24.4646815852
 20
2.4066302642
 30
0.0
 40
0.1600000000000032
100
AcDbArc
 50
357.3027318661
 51
182.6972681339
  0
ARC
  5
243
330
1F
100
AcDbEntity
  8
0
  6
Continuous
 62
     7
370
    15
100
AcDbCircle
 10
24.4646815852
 20
0.7066302642
 30
0.0
 40
1.700000000000001
100
AcDbArc
 50
95.3945362679
 51
264.6054637321
  0
ARC
  5
244
330
1F
100
AcDbEntity
  8
0
  6
Continuous
 62
     7
370
    15
100
AcDbCircle
 10
21.74832253
 20
-5.437464224
 30
0.0
 40
0.1599999999999994
100
AcDbArc
 50
177.3027318661
 51
2.6972681339
  0
ARC
  5
245
330
1F
100
AcDbEntity
  8
0
  6
Continuous
 62
     7
370
    15
100
AcDbCircle
 10
21.74832253
 20
-3.737464224
 30
0.0
 40
1.700000000000001
100
AcDbArc
 50
275.3945362679
 51
84.6054637321
  0
ARC
  5
246
330
1F
100
AcDbEntity
  8
0
  6
Continuous
 62
     7
370
    15
100
AcDbCircle
 10
21.74832253
 20
-2.037464224
 30
0.0
 40
0.1599999999999995
100
AcDbArc
 50
357.3027318661
 51
182.6972681339
  0
ARC
  5
247
330
1F
100
AcDbEntity
  8
0
  6
Continuous
 62
     7
370
    15
100
AcDbCircle
 10
21.74832253
 20
-3.737464224
 30
0.0
 40
1.700000000000001
100
AcDbArc
 50
95.3945362679
 51
264.6054637321
  0
ARC
  5
248
330
1F
100
AcDbEntity
  8
0
  6
Continuous
 62
     7
370
    15
100
AcDbCircle
 10
19.02832253
 20
-9.8815587122
 30
0.0
 40
0.1600000000000029
100
AcDbArc
 50
177.3027318661
 51
2.6972681339
  0
ARC
  5
249
330
1F
100
AcDbEntity
  8
0
  6
Continuous
 62
     7
370
    15
100
AcDbCircle
 10
19.02832253
 20
-8.1815587122
 30
0.0
 40
1.700000000000004
100
AcDbArc
 50
275.3945362679
 51
84.6054637321
  0
ARC
  5
24A
330
1F
100
AcDbEntity
  8
0
  6
Continuous
 62
     7
370
    15
100
AcDbCircle
 10
19.02832253
 20
-6.4815587122
 30
0.0
 40
0.1600000000000029
100
AcDbArc
 50
357.3027318661
 51
182.6972681339
  0
ARC
  5
24B
330
1F
100
AcDbEntity
  8
0
  6
Continuous
 62
     7
370
    15
100
AcDbCircle
 10
19.02832253
 20
-8.1815587122
 30
0.0
 40
1.700000000000003
100
AcDbArc
 50
95.3945362679
 51
264.6054637321
  0
ARC
  5
24C
330
1F
100
AcDbEntity
  8
0
  6
Continuous
 62
     7
370
    15
100
AcDbCircle
 10
24.900202845
 20
-9.8815587122
 30
0.0
 40
0.1599999999999993
100
AcDbArc
 50
177.3027318661
 51
2.6972681339
  0
ARC
  5
24D
330
1F
100
AcDbEntity
  8
0
  6
Continuous
 62
     7
370
    15
100
AcDbCircle
 10
24.900202845
 20
-8.1815587122
 30
0.0
 40
1.700000000000004
100
AcDbArc
 50
275.3945362679
 51
84.6054637321
  0
ARC
  5
24E
330
1F
100
AcDbEntity
  8
0
  6
Continuous
 62
     7
370
    15
100
AcDbCircle
 10
24.900202845
 20
-6.4815587122
 30
0.0
 40
0.1599999999999994
100
AcDbArc
 50
357.3027318661
 51
182.6972681339
  0
ARC
  5
24F
330
1F
100
AcDbEntity
  8
0
  6
Continuous
 62
     7
370
    15
100
AcDbCircle
 10
24.900202845
 20
-8.1815587122
 30
0.0
 40
1.700000000000003
100
AcDbArc
 50
95.3945362679
 51
264.6054637321
  0
ARC
  5
250
330
1F
100
AcDbEntity
  8
0
  6
Continuous
 62
     7
370
    15
100
AcDbCircle
 10
21.7446815852
 20
-14.3256532004
 30
0.0
 40
0.1599999999999994
100
AcDbArc
 50
177.3027318661
 51
2.6972681339
  0
ARC
  5
251
330
1F
100
AcDbEntity
  8
0
  6
Continuous
 62
     7
370
    15
100
AcDbCircle
 10
21.7446815852
 20
-12.6256532004
 30
0.0
 40
1.700000000000006
100
AcDbArc
 50
275.3945362679
 51
84.6054637321
  0
ARC
  5
252
330
1F
100
AcDbEntity
  8
0
  6
Continuous
 62
     7
370
    15
100
AcDbCircle
 10
21.7446815852
 20
-10.9256532004
 30
0.0
 40
0.1599999999999996
100
AcDbArc
 50
357.3027318661
 51
182.6972681339
  0
ARC
  5
253
330
1F
100
AcDbEntity
  8
0
  6
Continuous
 62
     7
370
    15
100
AcDbCircle
 10
21.7446815852
 20
-12.6256532004
 30
0.0
 40
1.700000000000006
100
AcDbArc
 50
95.3945362679
 51
264.6054637321
  0
ARC
  5
254
330
1F
100
AcDbEntity
  8
0
  6
Continuous
 62
     7
370
    15
100
AcDbCircle
 10
-28.0
 20
-13.1611652352
 30
0.0
 40
2.000000000000025
100
AcDbArc
 50
180.0
 51
225.0
  0
ARC
  5
255
330
1F
100
AcDbEntity
  8
0
  6
Continuous
 62
     7
370
    15
100
AcDbCircle
 10
27.7999416994
 20
-21.8050307021
 30
0.0
 40
2.200058300581887
100
AcDbArc
 50
273.8978096457
 51
0.0
  0
ARC
  5
256
330
1F
100
AcDbEntity
  8
0
  6
Continuous
 62
     7
370
    15
100
AcDbCircle
 10
-19.1611652352
 20
-22.0
 30
0.0
 40
1.999999999999966
100
AcDbArc
 50
225.0
 51
270.0
  0
ENDSEC
  0
SECTION
  2
OBJECTS
  0
DICTIONARY
  5
C
330
0
100
AcDbDictionary
281
     1
  3
ACAD_GROUP
350
D
  3
ACAD_LAYOUT
350
1A
  3
ACAD_MLINESTYLE
350
17
  3
ACAD_PLOTSETTINGS
350
19
  3
ACAD_PLOTSTYLENAME
350
E
  3
ACAD_SCALELIST
350
47
  0
DICTIONARY
  5
D
102
{ACAD_REACTORS
330
C
102
}
330
C
100
AcDbDictionary
281
     1
  0
DICTIONARY
  5
1A
102
{ACAD_REACTORS
330
C
102
}
330
C
100
AcDbDictionary
281
     1
  3
Layout1
350
1E
  3
Layout2
350
26
  3
Model
350
22
  0
DICTIONARY
  5
17
102
{ACAD_REACTORS
330
C
102
}
330
C
100
AcDbDictionary
281
     1
  3
Standard
350
18
  0
DICTIONARY
  5
19
102
{ACAD_REACTORS
330
C
102
}
330
C
100
AcDbDictionary
281
     1
  0
ACDBDICTIONARYWDFLT
  5
E
102
{ACAD_REACTORS
330
C
102
}
330
C
100
AcDbDictionary
281
     1
  3
Normal
350
F
100
AcDbDictionaryWithDefault
340
F
  0
DICTIONARY
  5
47
102
{ACAD_REACTORS
330
C
102
}
330
C
100
AcDbDictionary
281
     1
  3
A0
350
48
  3
A1
350
49
  3
A2
350
4A
  3
A3
350
4B
  3
A4
350
4C
  3
A5
350
4D
  3
A6
350
4E
  3
A7
350
4F
  3
A8
350
50
  3
A9
350
51
  3
B0
350
52
  3
B1
350
53
  3
B2
350
54
  3
B3
350
55
  3
B4
350
56
  3
B5
350
57
  3
B6
350
58
  3
B7
350
59
  3
B8
350
5A
  3
B9
350
5B
  3
C0
350
5C
  3
C1
350
5D
  3
C2
350
5E
  3
C3
350
5F
  3
C4
350
60
  3
C5
350
61
  3
C6
350
62
  3
C7
350
63
  3
C8
350
64
  3
C9
350
65
  3
D0
350
66
  3
D1
350
67
  3
D2
350
68
  0
LAYOUT
  5
1E
102
{ACAD_REACTORS
330
1A
102
}
330
1A
100
AcDbPlotSettings
  1

  2
none_device
  4

  6

 40
0.0
 41
0.0
 42
0.0
 43
0.0
 44
0.0
 45
0.0
 46
0.0
 47
0.0
 48
0.0
 49
0.0
140
0.0
141
0.0
142
1.0
143
1.0
 70
   688
 72
     0
 73
     0
 74
     5
  7

 75
    16
147
1.0
148
0.0
149
0.0
100
AcDbLayout
  1
Layout1
 70
     1
 71
     1
 10
0.0
 20
0.0
 11
12.0
 21
9.0
 12
0.0
 22
0.0
 32
0.0
 14
1.0000000000E+20
 24
1.0000000000E+20
 34
1.0000000000E+20
 15
-1.0000000000E+20
 25
-1.0000000000E+20
 35
-1.0000000000E+20
146
0.0
 13
0.0
 23
0.0
 33
0.0
 16
1.0
 26
0.0
 36
0.0
 17
0.0
 27
1.0
 37
0.0
 76
     0
330
1B
  0
LAYOUT
  5
26
102
{ACAD_REACTORS
330
1A
102
}
330
1A
100
AcDbPlotSettings
  1

  2
none_device
  4

  6

 40
0.0
 41
0.0
 42
0.0
 43
0.0
 44
0.0
 45
0.0
 46
0.0
 47
0.0
 48
0.0
 49
0.0
140
0.0
141
0.0
142
1.0
143
1.0
 70
   688
 72
     0
 73
     0
 74
     5
  7

 75
    16
147
1.0
148
0.0
149
0.0
100
AcDbLayout
  1
Layout2
 70
     1
 71
     2
 10
0.0
 20
0.0
 11
0.0
 21
0.0
 12
0.0
 22
0.0
 32
0.0
 14
0.0
 24
0.0
 34
0.0
 15
0.0
 25
0.0
 35
0.0
146
0.0
 13
0.0
 23
0.0
 33
0.0
 16
1.0
 26
0.0
 36
0.0
 17
0.0
 27
1.0
 37
0.0
 76
     0
330
23
  0
LAYOUT
  5
22
102
{ACAD_REACTORS
330
1A
102
}
330
1A
100
AcDbPlotSettings
  1

  2
none_device
  4
ANSI_A_(11.00_x_8.50_Inches)
  6

 40
6.35
 41
19.05
 42
6.35000508
 43
19.05000254
 44
279.4
 45
215.9
 46
133.34999746
 47
88.89999873
 48
0.0
 49
0.0
140
0.0
141
0.0
142
0.1753125
143
1.0
 70
  1696
 72
     0
 73
     0
 74
     0
  7

 75
     0
147
0.5913241897
148
-39.4088153714
149
0.0
100
AcDbLayout
  1
Model
 70
     1
 71
     0
 10
0.0
 20
0.0
 11
12.0
 21
9.0
 12
0.0
 22
0.0
 32
0.0
 14
-30.0
 24
-24.0
 34
0.0
 15
30.0
 25
24.0
 35
0.0
146
0.0
 13
0.0
 23
0.0
 33
0.0
 16
1.0
 26
0.0
 36
0.0
 17
0.0
 27
1.0
 37
0.0
 76
     0
330
1F
331
29
  0
MLINESTYLE
  5
18
102
{ACAD_REACTORS
330
17
102
}
330
17
100
AcDbMlineStyle
  2
Standard
 70
     0
  3

 62
   256
 51
90.0
 52
90.0
 71
     2
 49
0.5
 62
   256
  6
BYLAYER
 49
-0.5
 62
   256
  6
BYLAYER
  0
ACDBPLACEHOLDER
  5
F
102
{ACAD_REACTORS
330
E
102
}
330
E
  0
SCALE
  5
48
102
{ACAD_REACTORS
330
47
102
}
330
47
100
AcDbScale
 70
     0
300
1:1
140
1.0
141
1.0
290
     1
  0
SCALE
  5
49
102
{ACAD_REACTORS
330
47
102
}
330
47
100
AcDbScale
 70
     0
300
1:2
140
1.0
141
2.0
290
     0
  0
SCALE
  5
4A
102
{ACAD_REACTORS
330
47
102
}
330
47
100
AcDbScale
 70
     0
300
1:4
140
1.0
141
4.0
290
     0
  0
SCALE
  5
4B
102
{ACAD_REACTORS
330
47
102
}
330
47
100
AcDbScale
 70
     0
300
1:5
140
1.0
141
5.0
290
     0
  0
SCALE
  5
4C
102
{ACAD_REACTORS
330
47
102
}
330
47
100
AcDbScale
 70
     0
300
1:8
140
1.0
141
8.0
290
     0
  0
SCALE
  5
4D
102
{ACAD_REACTORS
330
47
102
}
330
47
100
AcDbScale
 70
     0
300
1:10
140
1.0
141
10.0
290
     0
  0
SCALE
  5
4E
102
{ACAD_REACTORS
330
47
102
}
330
47
100
AcDbScale
 70
     0
300
1:16
140
1.0
141
16.0
290
     0
  0
SCALE
  5
4F
102
{ACAD_REACTORS
330
47
102
}
330
47
100
AcDbScale
 70
     0
300
1:20
140
1.0
141
20.0
290
     0
  0
SCALE
  5
50
102
{ACAD_REACTORS
330
47
102
}
330
47
100
AcDbScale
 70
     0
300
1:30
140
1.0
141
30.0
290
     0
  0
SCALE
  5
51
102
{ACAD_REACTORS
330
47
102
}
330
47
100
AcDbScale
 70
     0
300
1:40
140
1.0
141
40.0
290
     0
  0
SCALE
  5
52
102
{ACAD_REACTORS
330
47
102
}
330
47
100
AcDbScale
 70
     0
300
1:50
140
1.0
141
50.0
290
     0
  0
SCALE
  5
53
102
{ACAD_REACTORS
330
47
102
}
330
47
100
AcDbScale
 70
     0
300
1:100
140
1.0
141
100.0
290
     0
  0
SCALE
  5
54
102
{ACAD_REACTORS
330
47
102
}
330
47
100
AcDbScale
 70
     0
300
2:1
140
2.0
141
1.0
290
     0
  0
SCALE
  5
55
102
{ACAD_REACTORS
330
47
102
}
330
47
100
AcDbScale
 70
     0
300
4:1
140
4.0
141
1.0
290
     0
  0
SCALE
  5
56
102
{ACAD_REACTORS
330
47
102
}
330
47
100
AcDbScale
 70
     0
300
8:1
140
8.0
141
1.0
290
     0
  0
SCALE
  5
57
102
{ACAD_REACTORS
330
47
102
}
330
47
100
AcDbScale
 70
     0
300
10:1
140
10.0
141
1.0
290
     0
  0
SCALE
  5
58
102
{ACAD_REACTORS
330
47
102
}
330
47
100
AcDbScale
 70
     0
300
100:1
140
100.0
141
1.0
290
     0
  0
SCALE
  5
59
102
{ACAD_REACTORS
330
47
102
}
330
47
100
AcDbScale
 70
     0
300
1/128" = 1'-0"
140
0.0078125
141
12.0
290
     0
  0
SCALE
  5
5A
102
{ACAD_REACTORS
330
47
102
}
330
47
100
AcDbScale
 70
     0
300
1/64" = 1'-0"
140
0.015625
141
12.0
290
     0
  0
SCALE
  5
5B
102
{ACAD_REACTORS
330
47
102
}
330
47
100
AcDbScale
 70
     0
300
1/32" = 1'-0"
140
0.03125
141
12.0
290
     0
  0
SCALE
  5
5C
102
{ACAD_REACTORS
330
47
102
}
330
47
100
AcDbScale
 70
     0
300
1/16" = 1'-0"
140
0.0625
141
12.0
290
     0
  0
SCALE
  5
5D
102
{ACAD_REACTORS
330
47
102
}
330
47
100
AcDbScale
 70
     0
300
3/32" = 1'-0"
140
0.09375
141
12.0
290
     0
  0
SCALE
  5
5E
102
{ACAD_REACTORS
330
47
102
}
330
47
100
AcDbScale
 70
     0
300
1/8" = 1'-0"
140
0.125
141
12.0
290
     0
  0
SCALE
  5
5F
102
{ACAD_REACTORS
330
47
102
}
330
47
100
AcDbScale
 70
     0
300
3/16" = 1'-0"
140
0.1875
141
12.0
290
     0
  0
SCALE
  5
60
102
{ACAD_REACTORS
330
47
102
}
330
47
100
AcDbScale
 70
     0
300
1/4" = 1'-0"
140
0.25
141
12.0
290
     0
  0
SCALE
  5
61
102
{ACAD_REACTORS
330
47
102
}
330
47
100
AcDbScale
 70
     0
300
3/8" = 1'-0"
140
0.375
141
12.0
290
     0
  0
SCALE
  5
62
102
{ACAD_REACTORS
330
47
102
}
330
47
100
AcDbScale
 70
     0
300
1/2" = 1'-0"
140
0.5
141
12.0
290
     0
  0
SCALE
  5
63
102
{ACAD_REACTORS
330
47
102
}
330
47
100
AcDbScale
 70
     0
300
3/4" = 1'-0"
140
0.75
141
12.0
290
     0
  0
SCALE
  5
64
102
{ACAD_REACTORS
330
47
102
}
330
47
100
AcDbScale
 70
     0
300
1" = 1'-0"
140
1.0
141
12.0
290
     0
  0
SCALE
  5
65
102
{ACAD_REACTORS
330
47
102
}
330
47
100
AcDbScale
 70
     0
300
1-1/2" = 1'-0"
140
1.5
141
12.0
290
     0
  0
SCALE
  5
66
102
{ACAD_REACTORS
330
47
102
}
330
47
100
AcDbScale
 70
     0
300
3" = 1'-0"
140
3.0
141
12.0
290
     0
  0
SCALE
  5
67
102
{ACAD_REACTORS
330
47
102
}
330
47
100
AcDbScale
 70
     0
300
6" = 1'-0"
140
6.0
141
12.0
290
     0
  0
SCALE
  5
68
102
{ACAD_REACTORS
330
47
102
}
330
47
100
AcDbScale
 70
     0
300
1'-0" = 1'-0"
140
12.0
141
12.0
290
     0
  0
ENDSEC
  0
EOF
